Song name
# A B C D E F G H I J K L M N O P Q R S T U V W X Y Z

36 Crazyfists - The City Ignites tab

Band:  36 Crazyfists
Song:  The City Ignites
Album: Rest Inside The Flames

Tuning: Drop C [C,G,C,F,A,D]

There was already a tab for this song, but it was in Standard,
all done with actual chords. To my understanding it's done in 
Drop C with power chords and the like. So like it or not, here it is.

NOTE: I'm pretty sure there's 2 guitars, so I'll try and tab this out for
      both guitars. Even though I learnt it all on one.


INTRO/CHORUS x2

GUITAR ONE

D|-----------------------|  |-----------------------|
A|-----------------------|  |-----------------------|
F|-----------------------|  |-7~~~~~~6~~~~~~6~~~~~~-|
C|-12~~~~~11~~~~~11~~~~~-|x2|-5~~~~~~5~~~~~~7~~~~~~-|x2
G|-9~~~~~~9~~~~~~12~~~~~-|  |-5~~~~~~5~~~~~~5~~~~~~-|
C|-9~~~~~~9~~~~~~9~~~~~~-|  |-5~~~~~~5~~~~~~5~~~~~~-|

GUITAR TWO

D|-----------------------|  |-----------------------|
A|-----------------------|  |-----------------------|
F|-----------------------|  |-7------6--------------|
C|-12-----11-------------|x2|---5------5----7~~~~~~-|x2
G|----9------9---12~~~~~-|  |-----5------5----------|
C|------9------9---------|  |-----------------------|


VERSE x4

BOTH GUITARS

D|-----------------------------|
A|-----------------------------|
F|-----------------------------|
C|-99999999~~~~5555555/7-7~~~~-|
G|-99999999~~~~5555555/7-7~~~~-|
C|-99999999~~~~5555555/7-7~~~~-|



PRECHORUS x1

GUITAR ONE

D|----------------------|  |-----------------------------|
A|----------------------|  |-----------------------------|
F|----------------------|  |-----------------------------|
C|-555-555-555-555-5555-|x2|-777-777-777-777-7777-11~~~~-|
G|-555-555-555-555-5555-|  |-777-777-777-777-7777-7~~~~~-|
C|-555-555-555-555-5555-|  |-777-777-777-777-7777-7~~~~~-|

GUITAR TWO

D|----------------------|  |-----------------------------|
A|----------------------|  |-----------------------------|
F|----------------------|  |-----------------------------|
C|-999-777--------------|x2|-121212-111111-999-777-11~~~-|
G|---------999-777-9999-|  |-12's---11's-----------7~~~~-|
C|----------------------|  |-----------------------7~~~~-|


CHORUS x2

GUITAR ONE

D|-----------------------|  |-----------------------|
A|-----------------------|  |-----------------------|
F|-----------------------|  |-7~~~~~~6~~~~~~6~~~~~~-|
C|-12~~~~~11~~~~~11~~~~~-|x2|-5~~~~~~5~~~~~~7~~~~~~-|x2
G|-9~~~~~~9~~~~~~12~~~~~-|  |-5~~~~~~5~~~~~~5~~~~~~-|
C|-9~~~~~~9~~~~~~9~~~~~~-|  |-5~~~~~~5~~~~~~5~~~~~~-|

GUITAR TWO

D|-----------------------|  |-----------------------|
A|-----------------------|  |-----------------------|
F|-----------------------|  |-7------6--------------|
C|-12-----11-------------|x2|---5------5----7~~~~~~-|x2
G|----9------9---12~~~~~-|  |-----5------5----------|
C|------9------9---------|  |-----------------------|


VERSE x4

BOTH GUITARS

D|-----------------------------|
A|-----------------------------|
F|-----------------------------|
C|-99999999~~~~5555555/7-7~~~~-|
G|-99999999~~~~5555555/7-7~~~~-|
C|-99999999~~~~5555555/7-7~~~~-|


PRECHORUS x1

GUITAR ONE

D|----------------------|  |-----------------------------|
A|----------------------|  |-----------------------------|
F|----------------------|  |-----------------------------|
C|-555-555-555-555-5555-|x2|-777-777-777-777-7777-11~~~~-|
G|-555-555-555-555-5555-|  |-777-777-777-777-7777-7~~~~~-|
C|-555-555-555-555-5555-|  |-777-777-777-777-7777-7~~~~~-|

GUITAR TWO

D|----------------------|  |-----------------------------|
A|----------------------|  |-----------------------------|
F|----------------------|  |-----------------------------|
C|-999-777--------------|x2|-121212-111111-999-777-11~~~-|
G|---------999-777-9999-|  |-12's---11's-----------7~~~~-|
C|----------------------|  |-----------------------7~~~~-|


CHORUS TWO
Part One

GUITAR ONE

D|-----------------------|  |-----------------------|
A|-----------------------|  |-----------------------|
F|-----------------------|  |-7~~~~~~6~~~~~~6~~~~~~-|
C|-12~~~~~11~~~~~11~~~~~-|x2|-5~~~~~~5~~~~~~7~~~~~~-|x2
G|-9~~~~~~9~~~~~~12~~~~~-|  |-5~~~~~~5~~~~~~5~~~~~~-|
C|-9~~~~~~9~~~~~~9~~~~~~-|  |-5~~~~~~5~~~~~~5~~~~~~-|

GUITAR TWO

D|-----------------------|  |-----------------------|
A|-----------------------|  |-----------------------|
F|-----------------------|  |-7------6--------------|
C|-12-----11-------------|x2|---5------5----7~~~~~~-|x2
G|----9------9---12~~~~~-|  |-----5------5----------|
C|------9------9---------|  |-----------------------|

Part Two

GUITAR ONE

D|-----------------------|
A|-----------------------|
F|-----------------------|
C|-12-----11-------------|x2
G|----9------9---12~~~~~-|
C|------9------9---------|

GUITAR TWO

D|--------------------------------------|
A|--------------------------------------|
F|------------------11-----9------------|
C|---------------------9-----9---11~~~~-|x2
G|-----------------------9-----9--------|
C|--------------------------------------|

continued...

GUITAR ONE

D|------------------------|
A|------------------------|
F|--7------6--------------|
C|----5------5----7~~~~~~-|x2
G|------5------5----------|
C|------------------------|

GUITAR TWO

D|--------------------------------------|
A|--------------------------------------|
F|------------------11-----9------------|
C|---------------------9-----9---11~~~~-|x2
G|-----------------------9-----9--------|
C|--------------------------------------|


BRIDGE x4

BOTH GUITARS

D|------------------------------------|
A|------------------------------------|
F|------------------------------------|
C|-4444444444444444-00000000-22222222-|
G|-4444444444444444-00000000-22222222-|
C|-4444444444444444-00000000-22222222-|


CHORUS THREE
Part One x2

GUITAR ONE

D|-----------------------|
A|-----------------------|
F|-----------------------|
C|-12-----11-------------|x2
G|----9------9---12~~~~~-|
C|------9------9---------|

GUITAR TWO

D|-----------------------------------|
A|-----------------------------------|
F|-----------------------------------|
C|------------------12-----11--------|x2
G|---------------------9------9---12-|
C|-----------------------9------9----|

Part Two

GUITAR ONE

D|-----------------------|
A|-----------------------|
F|-----------------------|
C|-12-----11-------------|x2
G|----9------9---12~~~~~-|
C|------9------9---------|

GUITAR TWO

D|--------------------------------------|
A|--------------------------------------|
F|------------------11-----9------------|
C|---------------------9-----9---11~~~~-|x2
G|-----------------------9-----9--------|
C|--------------------------------------|

continued...

GUITAR ONE

D|------------------------|
A|------------------------|
F|--7------6--------------|
C|----5------5----7~~~~~~-|x2
G|------5------5----------|
C|------------------------|

GUITAR TWO

D|--------------------------------------|
A|--------------------------------------|
F|------------------11-----9------------|
C|---------------------9-----9---11~~~~-|x2
G|-----------------------9-----9--------|
C|--------------------------------------|


FINISH

BOTH GUITARS

D|-------|
A|-------|
F|-------|
C|-7~~~~-|
G|-5~~~~-|
C|-5~~~~-|
Tap to rate this tab
 
# A B C D E F G H I J K L M N O P Q R S T U V W X Y Z