Song name
# A B C D E F G H I J K L M N O P Q R S T U V W X Y Z

36 Crazyfists - The Back Harlow Road tab

36 Crazyfists
The Back Harlow Road
Guitar Tab
Drop C Tuning - CGCFAD (Full Step With Drop D)
Tabbed By Jonathan Mack

. Palm Mute
\ Slide Down
/ Slide Up
x Muted String


Intro

Rhythm Guitar
0:00
|00000000000000000000000000000000|00000000000000000000000000000000--|
|55555555555555556666666666666666|55555555555555556666666688888888--|
|--------------------------------|----------------------------------|
|--------------------------------|----------------------------------| x3
|--------------------------------|----------------------------------|
|--------------------------------|----------------------------------|
 ................................ ................................


Lead Guitar
0:11
|--------|--------|--------|------3--|
|----5---|----5---|----5---|----5----|
|--5-----|--5-----|--5-----|--5------|
|7-------|5-------|3-------|2--------| x2
|--------|--------|--------|---------|
|--------|--------|--------|---------|

Verse One

Lead Guitar
0:34
|-------------------------------|--------------------------------->
|------------5-----------5------|------------5-----------5-6-5---->
|------5-----------5---------5--|------5-----------5-----------5-->
|7-7-7---7-7---7-7---7-7---7---7|5-5-5---5-5---5-5---5-5---------->
|-------------------------------|--------------------------------->
|-------------------------------|--------------------------------->
 . . . . . . . . . . . . . . . . . . . . . . . . . . . . . . . .

0:40
|-------------------------------|--------------------------------->
|------------5-----------5------|------------5-----------5-------->
|------5-----------5---------5--|------5-----------5---------5---->
|3-3-3---3-3---3-3---3-3---3---3|2-2-2---2-2---2-2---2-2---2---2--> 
|-------------------------------|--------------------------------->
|-------------------------------|--------------------------------->
 . . . . . . . . . . . . . . . . . . . . . . . . . . . . . . . . 

0:45
|-------------------------------|--------------------------------->
|------------5-----------5------|------------5-----------5-6-5---->
|------5-----------5---------5--|------5-----------5-----------5-->
|7-7-7---7-7---7-7---7-7---7---7|5-5-5---5-5---5-5---5-5---------->
|-------------------------------|--------------------------------->
|-------------------------------|--------------------------------->
 . . . . . . . . . . . . . . . . . . . . . . . . . . . . . . . .

0:51
|---------------------------------|
|------------5-----------5--------|
|------5-----------5---------5----|
|3-3-3---3-3---3-3---3-3---3------| x1
|---------------------------------|
|---------------------------------|
 . . . . . . . . . . . . . . . . 

Rhythm Guitar
0:54
|--------|
|--------|
|--------|
|2-2-2---| x1
|2-2-2---|
|2-2-2---|


Pre Chorus One

Rhythm Guitar
0:57
|----0000000000000--|
|----5555556666666--|
|-------------------|
|000----------------| x3
|000----------------|
|000----------------|
 ... 

1:05        1:07          
|----000000|----------|
|----555555|----------|
|----------|----------|
|000-------|777-5-22--| x1
|000-------|777-5-22--|
|000-------|777-5-22--|
 ... 


Chorus One

Rhythm Guitar
1:08
|-------------------------------------------------------------------->
|-------------------------------------------------------------------->
|-------------------------------------------------------------------->
|3333333333333333/5555555555555555/77777777777777777777777777777777-->
|3333333333333333/5555555555555555/77777777777777777777777777777777-->
|3333333333333333/5555555555555555/77777777777777777777777777777777-->

1:20
|--------------------------------|
|--------------------------------|
|--------------------------------|
|3333333333333333/5555555555555--| x1
|3333333333333333/5555555555555--|
|3333333333333333/5555555555555--|

Lead Guitar
1:08                    1:17           1:20
|0-----0-----0----------|-------------|--1-0---3-1--0--|
|--3-----3-----3---0----|--0-1-0-3-1-3|1-----3---------|
|----5-----5-----5---5-4|2------------|----------------|
|-----------------------|-------------|----------------| x1
|-----------------------|-------------|----------------|
|-----------------------|-------------|----------------|


Post Chorus

Rhythm Guitar
1:25
|----0000000000000--|
|----5555556666666--|
|-------------------|
|000----------------| x2
|000----------------|
|000----------------|
 ... 

1:31
|00000000000000000000000000000000|00000000000000000000000000000000--|
|55555555555555555555555555555555|55555555555555556666666688888888--|
|--------------------------------|----------------------------------|
|--------------------------------|----------------------------------| x1
|--------------------------------|----------------------------------|
|--------------------------------|----------------------------------|
 ................................ ................................


Lead Guitar
1:31
|--------|--------|--------|------3--|
|----5---|----5---|----5---|----5----|
|--5-----|--5-----|--5-----|--5------|
|7-------|5-------|3-------|2--------| x1
|--------|--------|--------|---------|
|--------|--------|--------|---------|



Verse Two

Lead Guitar
1:43
|-------------------------------|--------------------------------->
|------------5-----------5------|------------5-----------5-6-5---->
|------5-----------5---------5--|------5-----------5-----------5-->
|7-7-7---7-7---7-7---7-7---7---7|5-5-5---5-5---5-5---5-5----------> x1
|-------------------------------|--------------------------------->
|-------------------------------|--------------------------------->
 . . . . . . . . . . . . . . . . . . . . . . . . . . . . . . . .

1:48
|-------------------------------|--------------------------------->
|------------5-----------5------|------------5-----------5-------->
|------5-----------5---------5--|------5-----------5---------5---->
|3-3-3---3-3---3-3---3-3---3---3|2-2-2---2-2---2-2---2-2---2---2--> x1
|-------------------------------|--------------------------------->
|-------------------------------|--------------------------------->
 . . . . . . . . . . . . . . . . . . . . . . . . . . . . . . . . 

1:54
|-------------------------------|--------------------------------->
|------------5-----------5------|------------5-----------5-6-5---->
|------5-----------5---------5--|------5-----------5-----------5-->
|7-7-7---7-7---7-7---7-7---7---7|5-5-5---5-5---5-5---5-5----------> x1
|-------------------------------|--------------------------------->
|-------------------------------|--------------------------------->
 . . . . . . . . . . . . . . . . . . . . . . . . . . . . . . . 

2:00
|---------------------------------|
|------------5-----------5--------|
|------5-----------5---------5----|
|3-3-3---3-3---3-3---3-3---3------| x1
|---------------------------------|
|---------------------------------|
 . . . . . . . . . . . . . . . . 


Rhythm Guitar
2:02
|--------|
|--------|
|--------|
|2-2-2---| x1
|2-2-2---|
|2-2-2---|

Pre Chorus One

Rhythm Guitar
2:05
|----0000000000000--|
|----5555556666666--|
|-------------------|
|000----------------| x3
|000----------------|
|000----------------|
 ... 

2:14        2:16   
|----000000|----------|
|----555555|----------|
|----------|----------|
|000-------|777-5-22--| x1
|000-------|777-5-22--|
|000-------|777-5-22--|
 ... 


Chorus Two

Rhythm Guitar
2:17
|-------------------------------------------------------------------->
|-------------------------------------------------------------------->
|-------------------------------------------------------------------->
|3333333333333333/5555555555555555/77777777777777777777777777777777-->
|3333333333333333/5555555555555555/77777777777777777777777777777777-->
|3333333333333333/5555555555555555/77777777777777777777777777777777-->

2:28
|--------------------------------|
|--------------------------------|
|--------------------------------|
|3333333333333333/5555555555555--| x1
|3333333333333333/5555555555555--|
|3333333333333333/5555555555555--|

Lead Guitar
2:17                     2:26         2:28
|0-----0-----0----------|-------------|--1-0---3-1--0--|
|--3-----3-----3---0----|--0-1-0-3-1-3|1-----3---------|
|----5-----5-----5---5-4|2------------|----------------|
|-----------------------|-------------|----------------| x1
|-----------------------|-------------|----------------|
|-----------------------|-------------|----------------|


Post Chorus
2:34                         2:38
|----0000000000000|----000000|--------------|
|----5555556666666|----555555|--------------|
|-----------------|----------|--------------|
|000--------------|000-------|777-5-22-333--| x1
|000--------------|000-------|777-5-22-333--|
|000--------------|000-------|777-5-22-333--|
 ...               ...


Bridge Section

Rhythm Guitar
2:40
|--------------------|------------------------|
|--------------------|------------------------|
|-9-9--9-9-9--9-9-9-9|-9-9-9--9-9--9-9-9------|
|1010-101010-10101010|101010-1010-101010--7\--| x1
|-8-8--8-8-8--8-8-8-8|-7-7-7--7-7--7-7-7--7\--|
|--------------------|--------------------7\--|
                                          .

2:45
|----------------|----------------|----------------|----------------->
|----------------|----------------|----------------|----------------->
|555-55-5555-55-5|555-55-5555-55-5|555-55-5555-55-5|555-55-5555-55-5->
|333-33-3333-33-3|222-22-2222-22-2|000-00-0000-00-0|000-00-0000-00-0-> x1
|333-33-3333-33-3|222-22-2222-22-2|000-00-0000-00-0|000-00-0000-00-0->
|333-33-3333-33-3|222-22-2222-22-2|000-00-0000-00-0|000-00-0000-00-0->

2:57
|----------------|----------------|----------------|------------------|
|----------------|----------------|----------------|------------------|
|555-55-5555-55-5|555-55-5555-55-5|555-55-5555-55-5|555-55-5----------|
|333-33-3333-33-3|222-22-2222-22-2|000-00-0000-00-0|000-00-0-0000000--| x1
|333-33-3333-33-3|222-22-2222-22-2|000-00-0000-00-0|000-00-0-0000000--|
|333-33-3333-33-3|222-22-2222-22-2|000-00-0000-00-0|000-00-0-0000000--|
                                                             .......

Lead Guitar
2:57
|--------------------------------------->
|--------------------------------------->
|99999999999999/1010-77777777777777/99-->
|xxxxxxxxxxxxxx--x-x-xxxxxxxxxxxxxx-xx--> x1
|77777777777777/-8-8-55555555555555/77-->
|--------------------------------------->

3:03
|----------------------------------|
|----------------------------------|
|55555555555555555555555555--------|
|xxxxxxxxxxxxxxxxxxxxxxxxxx--------| x1
|33333333333333333333333333--------|
|----------------------------------|

Chorus Three

Rhythm Guitar
3:08
|--------------------------------------------------------------------|
|--------------------------------------------------------------------|
|--------------------------------------------------------------------|
|3333333333333333/5555555555555555/77777777777777777777777777777777--| x1
|3333333333333333/5555555555555555/77777777777777777777777777777777--|
|3333333333333333/5555555555555555/77777777777777777777777777777777--|

3:20
|--------------------------------------------------------------------|
|--------------------------------------------------------------------|
|--------------------------------------------------------------------|
|3333333333333333/5555555555555555/77777777777777777777777777777777--| x1
|3333333333333333/5555555555555555/77777777777777777777777777777777--|
|3333333333333333/5555555555555555/77777777777777777777777777777777--|

3:31
|--------------------------------|
|--------------------------------|
|--------------------------------|
|3333333333333333/5555555555555--| x1
|3333333333333333/5555555555555--|
|3333333333333333/5555555555555--|

Lead Guitar
3:20                    2:28          3:31
|0-----0-----0----------|-------------|--1-0---3-1--0--|
|--3-----3-----3---0----|--0-1-0-3-1-3|1-----3---------|
|----5-----5-----5---5-4|2------------|----------------|
|-----------------------|-------------|----------------| x1
|-----------------------|-------------|----------------|
|-----------------------|-------------|----------------|


Outro

Rhythm Guitar
3:37
|----0000000000000--|
|----5555556666666--|
|-------------------|
|000----------------| x2
|000----------------|
|000----------------|
 ...

3:43
|------000000000000--|
|------555556666666--|
|--------------------|
|3-3-3---------------| x1
|3-3-3---------------|
|3-3-3---------------|

3:45
|------000000000000--|
|------555556666666--|
|--------------------|
|2-2-2---------------| x1
|2-2-2---------------|
|2-2-2---------------|

3:48
|----0000000000000--|
|----5555556666666--|
|-------------------|
|000----------------| x2
|000----------------|
|000----------------|
 ...

3:54
|------000000000000--|
|------555556666666--|
|--------------------|
|3-3-3---------------| x1
|3-3-3---------------|
|3-3-3---------------|

3:57
|----0---------------|
|----5---------------|
|----5---------------|
|2-2-3---------------| x1
|2-2-----------------|
|2-2-----------------|
Tap to rate this tab
 
# A B C D E F G H I J K L M N O P Q R S T U V W X Y Z