Song name
# A B C D E F G H I J K L M N O P Q R S T U V W X Y Z

36 Crazyfists - Reviver tab

36 Crazyfists
Collisions And Castaways
REVIVER
Tuning, Drop C - CGCFAD   A FEW WEIRD NOTES BUT ITS ALMOST THERE, CORRECTIONS WELCOME.


PLEASE NOTE, I HAVE NOT TABBED OUT THE STRUMMING PATTERN, PLEASE LISTEN TO THE SONG FOR 
THE PATTERN.

INTRO

D:--------------------------------------------------|
A:--------------------------------------------------|
F:--12------10-----10------12------10-----10--------|
C:---x-x16---7-x8---8-x8----x-x16---7-x8---8--------|
G:--10-------8------8------10-------8------8--------|
C:--------------------------------------------------|

VERSE
D:------------------------------------------------------------------------|
A:------------------------------------------------------------------------|
F:------------------------------------------------------------------------|
C:--55555---------55555------------55555---------55555-----------111-3-4--|
G:--55555--6-5-6--55555--6-5-6-----55555--6-5-6--55555--6-5-6-3--111-3-4--|
C:--55555---------55555------------55555---------55555-----------111-3-4--|
				^
				PAUSE
D:---------------------------------------------------------------------------|
A:---------------------------------------------------------------------------|
F:---------------------------------------------------------------------------|
C:55555---------55555-5-4------------55555---------55555-----------111-3-4---|
G:55555--6-5-6--55555-----7-5-4-5----55555--6-5-6--55555--5-6-5-3--111-3-4---|
C:55555---------55555-------------7--55555---------55555-----------111-3-4---|


PRE CHORUS
D:-------------------------------------------------------------------------------|
A:-------------------------------------------------------------------------------|
F:-------------------------------------------------------------------------------|
C:-8---555-3-5-3/8-555-3-5-3/8-555-3-5-3/8-3-5-3-1-------------------------------|
G:-8---555-3-5-3/8-555-3-5-3/8-555-3-5-3/8-3-5-3-1-------------------------------|
C:-8---555-3-5-3/8-555-3-5-3/8-555-3-5-3/8-3-5-3-1-------------------------------|

CHORUS
D:-------------------------------------------------------------------------------------|
A:-555-------------------------------555-----------------------------------------------|
F:-333-555---------101010------------333-555-----777--101010-----666-------------------|
C:-111-333-555-777-8-8-8--333-55-33--111-333-555-555--8-8-8--333-444-------------------|
G:-111-333-555-555-8-8-8--333-55-33--111-333-555-555--8-8-8--333-444-------------------|
C:-111-333-555-555-8-8-8--333-55-33--111-333-555-555---------333-444-------------------|

INTRO TO 2nd VERSE
D:---------------------------------|
A:---------------------------------|
F:--12--10--10---------------------|
C:---x---7--8----------------------|
G:--10---8--8---5-6-5--------------|
C:---------------------------------|

2nd VERSE
D:------------------------------------------------------------------------|
A:------------------------------------------------------------------------|
F:------------------------------------------------------------------------|
C:--55555---------55555------------55555---------55555-----------111-3-4--|
G:--55555--6-5-6--55555--6-5-6-----55555--6-5-6--55555--6-5-6-3--111-3-4--|
C:--55555---------55555------------55555---------55555-----------111-3-4--|
				^
				PAUSE
D:---------------------------------------------------------------------------|
A:---------------------------------------------------------------------------|
F:---------------------------------------------------------------------------|
C:55555---------55555-5-4------------55555---------55555-----------111-3-4---|
G:55555--6-5-6--55555-----7-5-4-5----55555--6-5-6--55555--5-6-5-3--111-3-4---|
C:55555---------55555-------------7--55555---------55555-----------111-3-4---|

PRE CHORUS
D:---------------------------------------------------------------------------|
A:---------------------------------------------------------------------------|
F:---------------------------------------------------------------------------|
C:-8---555-3-5-3/8-555-3-5-3/8-555-3-5-3/8-555-------------------------------|
G:-8---555-3-5-3/8-555-3-5-3/8-555-3-5-3/8-555-------------------------------|
C:-8---555-3-5-3/8-555-3-5-3/8-555-3-5-3/8-555-------------------------------|

CHORUS
D:-------------------------------------------------------------------------------------|
A:-555-------------------------------555-----------------------------------------------|
F:-333-555---------101010------------333-555-----777--101010-----666-------------------|
C:-111-333-555-777-8-8-8--333-55-33--111-333-555-555--8-8-8--333-444-------------------|
G:-111-333-555-555-8-8-8--333-55-33--111-333-555-555--8-8-8--333-444-------------------|
C:-111-333-555-555-8-8-8--333-55-33--111-333-555-555---------333-444-------------------|

INTRO TO MIDDLE 8
D:-----------------------------------|
A:-----------------------------------|
F:--12--10--10--12--10--10-8-7-------|
C:---x---7--8----x---7--8--6-5--58---|
G:--10---8--8---10---8--8--6-5--58---|
C:------------------------------58---|

MIDDLE 8
D:--------------------------------------------------|
A:--------------------------------------------------|
F:--------------------------------------------------|
C:----5555--335555335/8888-10-8-555353--------------|
G:----5555--335555335/8888-10-8-555353--x2----------|
C:----5555--335555335/8888-10-8-555353--------------|


D:---------------------------------------------------------------------------|
A:---------------------------------------------------------------------------|
F:---------------------------------------------------------------------------|
C:5555--555-3-5-3/8-555-3-5-3/8-555-3-5-3/8-555-3-5-3------------------------|
G:5555--555-3-5-3/8-555-3-5-3/8-555-3-5-3/8-555-3-5-5------------------------|
C:5555--555-3-5-3/8-555-3-5-3/8-555-3-5-3/8-555-3-5-3------------------------|

CLEAN PART
D:----------------------------------------------------|
A:---5-------5----------------------------------------|
F:---3-5-----3-5---10---------------------------------|
C:-1-1-3-5-1-1-3-5-8----------------------------------|
G:-1-1-3-5-1-1-3-5-8----------------------------------|
C:-1-1-3-5-1-1-3-5-8----------------------------------|

CHORUS
D:-------------------------------------------------------------------------------------|
A:-555-------------------------------555-----------------------------------------------|
F:-333-555---------101010------------333-555-----777--101010-----666-------------------|
C:-111-333-555-777-8-8-8--333-55-33--111-333-555-555--8-8-8--333-444-------------------|
G:-111-333-555-555-8-8-8--333-55-33--111-333-555-555--8-8-8--333-444-------------------|
C:-111-333-555-555-8-8-8--333-55-33--111-333-555-555---------333-444-------------------|

OUTRO
D:----------------------------------------------------------------------------|
A:---------------------------------------------------5------------------------|
F:---------------------------------------------------3------------------------|
C:8--555-3-5-3/8-555-3-5-3/8-555-3-5-3/8-555-3-5-3-1-1------------------------|
G:8--555-3-5-3/8-555-3-5-3/8-555-3-5-3/8-555-3-5-5-1-1------------------------|
C:8--555-3-5-3/8-555-3-5-3/8-555-3-5-3/8-555-3-5-3-1-1------------------------|
Tap to rate this tab
# A B C D E F G H I J K L M N O P Q R S T U V W X Y Z