Song name
# A B C D E F G H I J K L M N O P Q R S T U V W X Y Z

36 Crazyfists - Left Hand Charity tab

Left Hand Charity
by 36 Crazyfists
Album: Bitterness the Star
Tabbed by jake@krammit.net

tuning: C G C F A D



A classroom circle slowly drifts on...

D||-----------------------------------||
A||-----------------------------------||
F||-----------------------------------||
C||------6---8---9-------2---4---1----||
G||----6---6---6---6---2---2---2---1--||
C||--6---------------2----------------||


Save your charity.....

D||----------------------------------------------------||
A||----------------------------------------------------||
F||----------------------------------------------------||
C||----------------------------------------------------||
G||--6-6-6-6-6-6-6-6-2-2-2-2-2-2-2-2-------------------||
C||--6-6-6-6-6-6-6-6-4-4-4-4-4-4-4-4-------------------||



end on this note:
D||---------------||
A||---------------||
F||---------------||
C||---------------||
G||---------------||
C||-1-------------||

That's pretty much all of it.  

---Jake

www.krammit.net
Tap to rate this tab
 
# A B C D E F G H I J K L M N O P Q R S T U V W X Y Z