Song name
# A B C D E F G H I J K L M N O P Q R S T U V W X Y Z

36 Crazyfists - Slit Wrist Theory tab

{COMPLETE GUITAR TAB WITH LYRICS}

Artist: 36 Crazyfists
Title : Slit Wrist Theory
Album : Bitterness the Star

Tabbed by: Dj MoNkEy
E-mail   : dustin7up@gmail.com
Tuning: Drop C {C,G,C,F,A,D}


August 31, 2006


{NOTE: I know this might not be 100% perfect,
       this is just how I play it. And it sounds
       good to me. Hope you like it!}






Intro: (00:00 - 00:20)
D|--------------------------------------------|
A|--------------------------------------------|
F|--------------------------------------------|
C|------8-8-----7-7---5-----8-8-----7-7-10----| {x4}
G|----------6-6-----3-----------6-6--------8--|
C|--5-5-----------------5-5-------------------|
					   With the,



Verse 1: (00:21 - 00:44)
D|-------------------------------------------------------------|
A|-------------------------------------------------------------|
F|-------------------------------------------------------------|
C|-------------8-8--------7-7--------5-------8-8-----7-7-10----|
G|------------------6-6------------3-------------6-6--------8--|
C|--5-5----------------------------------5-5-------------------|
   Absence of eye, I can start to bleed again, 		    With the,

D|---------------------------------------------------------------------|
A|---------------------------------------------------------------------|
F|---------------------------------------------------------------------|
C|-------------8-8------------7-7--------5-----------8-8-----7-7-10~---|
G|------------------6-6----------------3-----------------6-6-----------|
C|--5-5------------------------------------------5-5-------------------|
   Color of hearts it seems like you wear right thin		    And as it,

D|---------------------------------------------------------------------|
A|---------------------------------------------------------------------|
F|---------------------------------------------------------------------|
C|-------------8-8--------7-7--------5---------------8-8-----7-7-10----|
G|------------------6-6------------3---------------------6-6--------8--|
C|--5-5------------------------------------------5-5-------------------|
   Falls from your mouth, it seems like you needed it more	    Well I can,

D|-------------------------------------------------------------------------------|
A|-------------------------------------------------------------------------------|
F|-------------------------------------------------------------------------------|
C|-------------8-8--------7-7--------5---------------8-8-----7-7-10--------------|
G|------------------6-6------------3---------------------6-6--------8------------|
C|--5-5------------------------------------------5-5-------------------5-5-5-5~--|
   Still ask for more,			I will still ask for more... 



Chorus: (00:45 - 01:00)
D|-----------------------------------------------------------------------|
A|-----------------------------------------------------------------------|
F|-----------------------------------------------------------------------|
C|--35535535----------35535535----------35535535------------0-1-3-4-3-4--|
G|--35535535----------35535535----------35535535------------0-1-3-4-3-4--|
C|--35535535----------35535535----------35535535------------0-1-3-4-3-4--|
   Get the fu** out, Stay the fu** out.	   It makes me sick.(I'm alright.)

D|------------------------------------------------------------------------------------|
A|------------------------------------------------------------------------------------|
F|------------------------------------------------------------------------------------|
C|--35535535----------35535535----------35535535--------------0-1-3-4-3-4--0-1-3-4-4--|
G|--35535535----------35535535----------35535535--------------0-1-3-4-3-4--0-1-3-4-4--|
C|--35535535----------35535535----------35535535--------------0-1-3-4-3-4--0-1-3-4-4--|
	Slit wrist theory, 		  Stains us all...  (I'm alright)



Chorus Pt2: (01:01 - 01:20)
D|------------------------------------|
A|------------------------------------|
F|------------------------------------|
C|--55555555----------------88888888--|
G|--55555555----------------88888888--|
C|--55555555----------------88888888--|
    Lace me up,		    Lace me up. I'm still,

Guitar 2:
D|------------------------------------------------|
A|------------------------------------------------|
F|--12--15--14--15-14-15----12--15--17--15-15-15--|
C|------------------------------------------------|
G|------------------------------------------------|
C|------------------------------------------------|

D|------------------------------------------------------------|
A|------------------------------------------------------------|
F|------------------------------------------------------------|
C|--13-13-13-13---10-10-10-10-10-10--13-13-13-13---8888-8-6~--|
G|--13-13-13-13---10-10-10-10-10-10--13-13-13-13---8888-8-6~--|
C|--13-13-13-13---10-10-10-10-10-10--13-13-13-13---8888-8-6~--|
    Looking for these angels in the snow.

D|------------------------------------|
A|------------------------------------|
F|------------------------------------|
C|--55555555----------------88888888--|
G|--55555555----------------88888888--|
C|--55555555----------------88888888--|
    Lace me up,		    Lace me up. I'm still,

Guitar 2:
D|------------------------------------------------|
A|------------------------------------------------|
F|--12--15--14--15-14-15----12--15--17--15-15-15--|
C|------------------------------------------------|
G|------------------------------------------------|
C|------------------------------------------------|

D|------------------------------------------------------------|
A|------------------------------------------------------------|
F|------------------------------------------------------------|
C|--13-13-13-13---10-10-10-10-10-10--13-13-13-13---8888-8-6~--|
G|--13-13-13-13---10-10-10-10-10-10--13-13-13-13---8888-8-6~--|
C|--13-13-13-13---10-10-10-10-10-10--13-13-13-13---8888-8-6~--|
    Looking for these angels in the snow.



Intro: (01:21 - 01:26)
D|--------------------------------------------|
A|--------------------------------------------|
F|--------------------------------------------|
C|------8-8-----7-7---5-----8-8-----7-7-10----| {x1}
G|----------6-6-----3-----------6-6--------8--|
C|--5-5-----------------5-5-------------------|



Verse 2: (01:27 - 01:49)
D|--------------------------------------------|
A|--------------------------------------------|
F|--------------------------------------------|
C|------8-8-----7-7---5-----8-8-----7-7-10----|
G|----------6-6-----3-----------6-6--------8--|
C|--5-5-----------------5-5-------------------|
   It 	seems like a runaround.

D|---------------------------------------------|
A|--------------------------------------12-12--|
F|---------------------------------------------|
C|------8-8-----7-7---5-----8-8-----7-7--------|
G|----------6-6-----3-----------6-6------------|
C|--5-5-----------------5-5--------------------|
   Words that won't matter.

D|---------------------------------------------------------------------|
A|---------------------------------------------------------------------|
F|---------------------------------------------------------------------|
C|-------------8-8------------7-7--------5-----------8-8-----7-7-10----|
G|------------------6-6----------------3-----------------6-6--------8--|
C|--5-5------------------------------------------5-5-------------------|
   And as it falls from your mouth it seems like you needed it more. And I will,

D|-------------------------------------------------------------------------------|
A|-------------------------------------------------------------------------------|
F|-------------------------------------------------------------------------------|
C|-------------8-8--------7-7--------5---------------8-8-----7-7-10--------------|
G|------------------6-6------------3---------------------6-6--------8------------|
C|--5-5------------------------------------------5-5-------------------5-5-5-5~--|
   Color you all red,			I will color you all...red 



Chorus:(01:50 - 02:05)
D|-----------------------------------|
A|-----------------------------------|
F|-----------------------------------|
C|-----TABBED-----ABOVE-----^^^------|
G|-----------------------------------|
C|-----------------------------------|



Chorus Pt2: (02:06 - 02:25)
D|-----------------------------------|
A|-----------------------------------|
F|-----------------------------------|
C|-----TABBED-----ABOVE-----^^^------|
G|-----------------------------------|
C|-----------------------------------|



Bridge: (02:26 - 02:36)
D|---------------------------------------|
A|---------------------------------------|
F|---------------------------------------|
C|--55536666-55536666-55536666-55533-1~--|
G|--55536666-55536666-55536666-55533-1~--|
C|--55536666-55536666-55536666-55533-1~--|
	    Braided conversation.

D|---------------------------------------|
A|---------------------------------------|
F|---------------------------------------|
C|--55536666-55536666-55536666-55533-1~--|
G|--55536666-55536666-55536666-55533-1~--|
C|--55536666-55536666-55536666-55533-1~--|
	    Braided conversation.



Chorus:(02:37 - 03:09)
D|-----------------------------------------------------------------------|
A|-----------------------------------------------------------------------|
F|-----------------------------------------------------------------------|
C|--35535535----------35535535----------35535535------------0-1-3-4-3-4--|
G|--35535535----------35535535----------35535535------------0-1-3-4-3-4--|
C|--35535535----------35535535----------35535535------------0-1-3-4-3-4--|
   Get the fu** out, Stay the fu** out.	   It makes me sick.(I'm alright.)

D|-------------------------------------------------------------------------|
A|-------------------------------------------------------------------------|
F|-------------------------------------------------------------------------|
C|--35535535----------35535535----------35535535--------------0-1-3-4-3-4--|
G|--35535535----------35535535----------35535535--------------0-1-3-4-3-4--|
C|--35535535----------35535535----------35535535--------------0-1-3-4-3-4--|
	Slit wrist theory, 		  Stains us all...  (I'm alright)

D|-----------------------------------------------------------------------|
A|-----------------------------------------------------------------------|
F|-----------------------------------------------------------------------|
C|--35535535---------35535535----------------35535535-------0-1-3-4-3-4--|
G|--35535535---------35535535----------------35535535-------0-1-3-4-3-4--|
C|--35535535---------35535535----------------35535535-------0-1-3-4-3-4--|
      And caved the fu** in, and bashed the fu** in, it's so old 

D|------------------------------------------------------------------------------------|
A|------------------------------------------------------------------------------------|
F|------------------------------------------------------------------------------------|
C|--35535535----------35535535----------35535535--------------0-1-3-4-3-4--0-1-3-4-4--|
G|--35535535----------35535535----------35535535--------------0-1-3-4-3-4--0-1-3-4-4--|
C|--35535535----------35535535----------35535535--------------0-1-3-4-3-4--0-1-3-4-4--|
	Slit wrist theory, 		  Stains us all...  (Slit wrist theory.)   Slit Wrist!

D|---------------------------|
A|---------------------------|
F|---------------------------|
C|---------------------------|
G|---------------------------|
C|--0-1-3-4-3-4--0-1-3-4-4~--|



Chorus Pt2: (03:10 - 03:29)
D|-----------------------------------|
A|-----------------------------------|
F|-----------------------------------|
C|-----TABBED-----ABOVE-----^^^------|
G|-----------------------------------|
C|-----------------------------------|



Outro: (03:30 - 4:00)
D|--------------------------------------------|
A|--------------------------------------------|
F|--------------------------------------------|
C|------8-8-----7-7---5-----8-8-----7-7-10----| {x1}
G|----------6-6-----3-----------6-6--------8--|
C|--5-5-----------------5-5-------------------|

D|--------------------------------------------|
A|--------------------------------------------|
F|--------------------------------------------|
C|------8-8-----7-7---5-----8-8-----7-7-10----| {x3}
G|----------6-6-----3-----------6-6--------8--|
C|--5-5-----------------5-5-------------------|
   Lace me up...

D|------------------------------------------------------|
A|------------------------------------------------------|
F|------------------------------------------------------|
C|------8-8-----7-7---5-----8-8-----7-7-10--------------| {x1}
G|----------6-6-----3-----------6-6--------8------------|
C|--5-5-----------------5-5-------------------5-5-5-5~--|
   Lace me up...





Tap to rate this tab
# A B C D E F G H I J K L M N O P Q R S T U V W X Y Z