Guitaretab - guitar tabs
Song name
# A B C D E F G H I J K L M N O P Q R S T U V W X Y Z

36 Crazyfists - Turns To Ashes tab

Turns to ashes  36 crazy fists

Drop C

Intro

------------------------------------------------------------------|
------------------------------------------------------------------|
------------------------------------------------------------------|
------------------------------------------------------------------|
--------------3---------------3---------------3---------------3-3-|
--0-1-3-1-0-1---1-0-1-3-1-0-1---1-0-1-3-1-0-1---1-0-1-3-1-0-1-----|

riff x2
-----------------------------------------------------------------|
-------------3---------------3---------------3-------------------|
-------------3---------------3---------------3-------------------|
-0-1-3-1-0-1-3-1-0-1-3-1-0-1-3-1-0-1-3-1-0-1-3-1-0-1-3-1-0-0---1-|
-0-1-3-1-0-1---1-0-1-3-1-0-1---1-0-1-3-1-0-1---1-0-1-3-1-0-0---1-|
-0-1-3-1-0-1---1-0-1-3-1-0-1---1-0-1-3-1-0-1---1-0-1-3-1-0-0---1-|

verse x4
-----------------------------------------------------------------|
-----------------------------------------------------------------|
-8---7---8---7---------------------------------------------------|
-----------------8-----------------------------------------------|
-----------------------------------------------------------------|
-----------------------------------------------------------------|
each of these is played lots of times, listen to the song and figure it out.
[ Tab from: http://www.guitaretab.com/numeric/36-crazyfists/31450.html ]
Pre-chorus x2
------------------------------------------------------------------|
------------------------------------------------------------------|
------------------------------------------------------------------|
-0-1-3-111-0-0-1/7---0-1-3-111-0-0-1/3----------------------------|
-0-1-3-111-0-0-1/7---0-1-3-111-0-0-1/3----------------------------|
-0-1-3-111-0-0-1/7---0-1-3-111-0-0-1/3----------------------------|
|-----PM------|     |------PM-------------------------------------|

chorus
-----------------------------------------------------------------|
-----------------------------------------------------------------|
-7-7-77-7/9-9-99-9/10-10-1010-10/14-14-1414----------------------|
-x-x-xx-x/x-x-xx-x/x--x--x-x---x/x--x--x-x----------------------|
-5-5-55-5/7-7-77-7/8--8-8-8---8/12-12-1212----------------------|
-----------------------------------------------------------------|

-----------------------------------------------------------------|
-----------------------------------------------------------------|
-7-7-77-7/9-9-99-9/10-10-1010-10/77777-6-------------------------|
-x-x-xx-x/x-x-xx-x/x--x--x-x--x-/xxxxx-x-------------------------|
-5-5-55-5/7-7-77-7/8--8--8-8--8-/55555-4-------------------------|
-----------------------------------------------------------------|

riff x1
verse x4
pre-chorus x2
chorus x2

solo thing
-----------------------------------------------------------------|
-----------------------------------------------------------------|
-7---10--8--5-710---8-10-7---10--8--5-7---10-12-14--------------|
-----------------------------------------------------------------|
-----------------------------------------------------------------|
-----------------------------------------------------------------|

chorus x2
intro with palm muting
riff x5

end on
---
---
---
-0-
-0-
-0-
Related for Turns To Ashes tab