Song name
# A B C D E F G H I J K L M N O P Q R S T U V W X Y Z

36 Crazyfists - Mercy And Grace tab

                           36 CRAZYFISTS - MERCY AND GRACE - COLLISIONS AND CASTAWAYS. 
                           NOT 100% BUT PRETTY CLOSE, ANY CORRECTIONS PLEASE COMMENT. 


Tuning:C,G,C,F,A,D
INTRO 
D|---------------------------------------------------------------------------|
A|---------------------------------------------------------------------------|
F|---------------------------------------------------------------------------|
C|----2---2---2---2-5---5--2---2-----2--2--2--2--0--0--0--0------------------|
G|--0---0---0---0-----0------0---0-------------------------------------------|
C|----------------------------------3--3--3--3--0--0--0--0-------------------|

D|-------------------|
A|-------------------|
F|-10-9-5------------|
C|-------------------|
G|--8-7-3------------|
C|-------------------|
VERSE GTR 1
D|---------------------------------------------------------------------------|
A|---------------------------------------------------------------------------|
F|----10----10----10/12-----9-----9--555-----10----10----10/12---------------|
C|-00----00----00-------00----00----------00----00----00---------------------|
G|-00--8-00--8-00--8/10-00--7-00--7--333--00--8-00--8-00--8/10---------------|
C|-00----00----00-------00----00----------00----00----00---------------------|
   ..    ..    ..       ..    ..          ..    ..    ..
VERSE GTR 2
D|---------------------------------------------------------------------------|
A|---------------------------------------------------------------------------|
F|--10-10-10-10-10/12-12-12--9-9-9-9-9-9--5-5-5-----10----10----10/12--------|
C|-----------------------------------------------00----00----00--------------|
G|---8--8--8--8--8/10-10-10--7-7-7-7-7-7--3-3-3--00--8-00--8-00--8/10--------|
C|-----------------------------------------------00----00----00--------------|
                                                 ..    ..    ..
D|-----------------------|
A|-----------------------|
F|----5-3-2--------------|
C|-----------------------|
G|-----------------------|
C|--7-------3-3/5-5------|
PRE CHOURS 
D|---------------------------------------------------------------------------|
A|---------------------------------------------------------------------------|
F|---------------------------------------------------------------------------|
C|--5222--5222--520--5222--5222--5202--5222-5222-2---------------------------|
G|--5222--5222--520--5222--5222--5202--5222-5222-2---------------------------|
C|--5222--5222--520--5222--5222--5202--5222-5222-2/14------------------------|

D|---------------------------------------------------------------------------|
A|---------------------------------------------------------------------------|
F|---------------------------------------------------------------------------|
C|--5222--5222--5202--5222--5222--5202--5222-5222--5202--5222--5222--3-------|
G|--5222--5222--5202--5222--5222--5202--5222-5222--5202--5222--5222--3-------|
C|--5222--5222--5202--5222--5222--5202--5222-5222--5202--5222--5222--3-------|
CHORUS GTR 1
D|---------------------------------------------------------------------------|
A|---------------------------------------------------------------------------|
F|-----9--9------9--9-----7-7-----9--9---------------------------------------|
C|---10-10-10--10-10-10--7-7-7--10-10-10-------------------------------------|
G|--8---------7---------5----------------------------------------------------|
C|-----------------------------7---------------------------------------------|
CHORUS GTR 2
D|-----------------------|
A|-----------------------|
F|--10--9--7--9----------|
C|--10--9--7-10----------|
G|---8--7--5--7----------|
C|------------7----------|
MIDDLE 8
D|---------------------------------------------------------------------------|
A|---------------------------------------------------------------------------|
F|-----10-10-10-------------------9-9------10-10-10------12-12-12-9-9--------|
C|-000-----------000--101010--00-------000-----------000--------------1010---|
G|-000--8--8--8--000--101010--00--7-7--000--8--8--8--000-10-10-10-7-7-1010---|
C|-000-----------000--101010--00-------000-----------000--------------1010---|

D|---------------------------------------------------------------------------|
A|---------------------------------------------------------------------------|
F|---------------------------------------------------------------------------|
C|--777777--555555--333333--000000--777777--555555--333333--5555555----------|
G|--777777--555555--333333--000000--777777--555555--333333--5555555----------|
C|--777777--555555--333333--000000--777777--555555--333333--5555555----------|
OUTRO 
D|---------------------------------------------------------------------------|
A|---------------------------------------------------------------------------|
F|-----10----10--555-----10----10----10----10----10--------------------------|
C|--00----00----------00----00----00----00----00-----3-2---------------------|
G|--00--8-00--8--333--00--8-00--8-00--8-00--8-00--8------3-------------------|
C|--00----00----------00----00----00----00----00-----------------------------|

D|---------------------------------------------------------------------------|
A|---------------------------------------------------------------------------|
F|-----10----10----10----10----10--555--9------------------------------------|
C|--00----00----00----00----00-----------------------------------------------|
G|--00--8-00--8-00--8-00--8-00--8--333--7------------------------------------|
C|--00----00----00----00----00----------0------------------------------------|
Tap to rate this tab
# A B C D E F G H I J K L M N O P Q R S T U V W X Y Z