Song name
# A B C D E F G H I J K L M N O P Q R S T U V W X Y Z

36 Crazyfists - Two Months From A Year tab

Two Months From A Year
36 Crazyfists
Bitterness The Star
Drop C- CGCFAD

-Intro- 
Gtr 1- Clean w/Delay
D|--------------------------------------------------------------------|
A|--------------------------------------------------------------------|
F|-----4--(4)----------------------------4--(4)-----------------------|
C|---2-----2---2p0-------5--(5)--------2-----2---2p0-------5h7--(5h7)-|
G|-0---------0---------3-----3---3---0---------0---------3------------|
C|-------------------3---------3-----------------------3--------------|

Gtr 1- Clean w/Delay
D|-----------------------------------|
A|-----------------------------------|
F|-----4--(4)------------------------|
C|---2-----2----2p0-------5--(5)-----|
G|-0----------0---------3-----3----3-|
C|--------------------3----------3---|
Gtr 2- Clean
D|-----------------------------------|
A|-----------------------------------|
F|----5r4~~~~------------------------|
C|-----------------------------------|
G|-----------------------------------|
C|-----------------------------------|
“Am I allowed to breathe? Am I allowed to counter?”

Gtr 1
D|-----------------------------------|
A|-----------------------------------|
F|-----4--(4)------------------------|
C|---2-----2----2p0-------5---5-7----|
G|-0----------0---------3---3--------|
C|--------------------3------------3-|
Gtr 2
D|-----------------------------------|
A|-----------------------------------|
F|----5r4~~~~------------------------|
C|-------------5h7p5~~~--------------|
G|-----------------------------------|
C|-----------------------------------|
“Words that don’t believe, words that don’t matter”

Gtr 1
D|------------------------------------|
A|------------------------------------|
F|-----4/5\4--------------------------|
C|---2--------2---2p0-------5---5-7---|
G|-0------------0---------3---3-------|
C|----------------------3-----------3-|
Gtr 2
D|--------------------------------------|
A|--------------------------------------|
F|----5r4~~~~---------------------------|
C|--------------------------------------|
G|--------------------------------------|
C|--------------------------------------|
“And soon I’ll say forget them all”

Gtr 1
D|-------------------------------|
A|-------------------------------|
F|-----4/5\4---------------------|
C|---2--------2---2p0-------5----|
G|-0------------0---------3------|
C|----------------------3--------|
Gtr 2
D|-------------------------------|
A|-------------------------------|
F|----5r4~~~~--------------------|
C|-------------5h7p5~~~----------|
G|-------------------------------|
C|-------------------------------|
“Only sometimes am I allowed”


“Breathe...”


-Verse- x6 
Gtr 1,2- Disotortion
D||----------------------------------------------------||
A||o--------------------------------------------------o||
F||----------------------------------------------------||
C||--7-7-7-7-9-9--7-7-7-7-9--7-7-7-7-9-9--7-7-7/9-0h4--||
G||o-7-7-7-7-7-7--7-7-7-7-7--7-7-7-7-7-7--7-7-7/9-0h4-o||
C||--7-7-7-7-7-7--7-7-7-7-7--7-7-7-7-7-7--7-7-7/9-0h4--||
“And someone should have told me, that you would be here
...But you weren’t you anymore, you weren’t you"

-Pre-Chorus-
D||-----------------------------------------------------------||
A||o---------------------------------------------------------o||
F||--------10~~-----10/12--9---------10~~-----10/12-12/14-14--||
C||-----------------------------------------------------------||
G||o--------8~~------8/10--7----------8~~------8/10-10/12-12-o||
C||--0--0-0------0-0-----------0--0-0------0-0----------------||
“But you will...you will.. you will.. YOU!!!”

-Chorus-
D|------------------------------------------------|
A|------------------------------------------------|
F|--------------------------10-9~~~----10-9--7~~~-|
C|-8--7~~~----8--7--3~~~----8--7~~~----8--7--5~~~-|
G|-8--7~~~----8--7--3~~~----8--7~~~----8--7--5~~~-|
C|-8--7~~~----8--7--3~~~----8--7~~~----8--7--5~~~-|
“Soon I       will fall    like the     wall..”

-Verse- x6
D||----------------------------------------------------||
A||o--------------------------------------------------o||
F||----------------------------------------------------||
C||--7-7-7-7-9-9--7-7-7-7-9--7-7-7-7-9-9--7-7-7/9-0h4--||
G||o-7-7-7-7-7-7--7-7-7-7-7--7-7-7-7-7-7--7-7-7/9-0h4-o||
C||--7-7-7-7-7-7--7-7-7-7-7--7-7-7-7-7-7--7-7-7/9-0h4--||
(Breathe)
(Breathe)
“And how it feels will be horror, do you hate it?
...’Cause you weren’t you anymore, you weren’t you”

-Pre-Chorus-
D||-----------------------------------------------------------||
A||o---------------------------------------------------------o||
F||--------10~~-----10/12--9---------10~~-----10/12-12/14-14--||
C||-----------------------------------------------------------||
G||o--------8~~------8/10--7----------8~~------8/10-10/12-12-o||
C||--0--0-0------0-0-----------0--0-0------0-0----------------||
“But you will...you will.. you will.. YOU!!!”

-Chorus-
D|------------------------------------------------|
A|------------------------------------------------|
F|--------------------------10-9~~~----10-9--7~~~-|
C|-8--7~~~----8--7--3~~~----8--7~~~----8--7--5~~~-|
G|-8--7~~~----8--7--3~~~----8--7~~~----8--7--5~~~-|
C|-8--7~~~----8--7--3~~~----8--7~~~----8--7--5~~~-|
“Soon I       will fall    like the     wall..”

-Interlude-
Gtr 1- Clean w/Delay
D|-----------------------------------|
A|-----------------------------------|
F|-----4--(4)------------------------|
C|---2-----2----2p0-------5--(5)-----|
G|-0----------0---------3-----3----3-|
C|--------------------3----------3---|
Gtr 2- Clean
D|------------------------------------|
A|------------------------------------|
F|-------------------------5r4~~~~----|
C|------------------------------------|
G|------------------------------------|
C|------------------------------------|
“All around fractured view of life”

Gtr 1
D|--------------------------------|
A|--------------------------------|
F|-----4-(4)----------------------|
C|---2----2---2p0-------5-----5-7-|
G|-0--------0---------3---3-------|
C|------------------3-------3-----|
“I tear down all these idols...”

Gtr 1
D|------------------------------------|
A|------------------------------------|
F|-----4/5\4--------------------------|
C|---2--------2---2p0-------5---5-7---|
G|-0------------0---------3---3-------|
C|----------------------3-----------3-|
Gtr 2
D|------------------------------------|
A|------------------------------------|
F|----5r4~~~~-------------------------|
C|-------------5h7p3~~~---------------|
G|------------------------------------|
C|------------------------------------|
“And I'll make my transformation”

Gtr 1
D|-----------------------------------|
A|-----------------------------------|
F|-----4/5\4-------------------------|
C|---2--------2---2p0--------5-------|
G|-0------------0----------3---------|
C|-----------------------3-----------|
Gtr 2
D|-----------------------------------|
A|-----------------------------------|
F|---------------------------5r4~~~~-|
C|-----------------------------------|
G|-----------------------------------|
C|-----------------------------------|
“You'll feel better...”

Gtr 1,2- Distortion
D||----------------------------------------------------||
A||o--------------------------------------------------o||
F||----------------------------------------------------||
C||--7-7-7-7-9-9--7-7-7-7-9--7-7-7-7-9-9--7-7-7/9-0h4--||
G||o-7-7-7-7-7-7--7-7-7-7-7--7-7-7-7-7-7--7-7-7/9-0h4-o||
C||--7-7-7-7-7-7--7-7-7-7-7--7-7-7-7-7-7--7-7-7/9-0h4--||
“RIGHT!!!”
(Breathe)                         (Breathe)

D||-----------------------------------------------------------||
A||o---------------------------------------------------------o||
F||--------10~~-----10/12--9---------10~~-----10/12-12/14-14--||
C||-----------------------------------------------------------||
G||o--------8~~------8/10--7----------8~~------8/10-10/12-12-o||
C||--0--0-0------0-0-----------0--0-0------0-0----------------||
“You will...you will.. you will.. YOU!!!”

D||-------------------------------------------------------------||
A||o-----------------------------------------------------------o||
F||------------------10/12--9-------------------10/12-12/14-14--||
C||------------3---2---------------------3---2------------------||
G||o-0-0-0-0-0-3-0-2--8/10--7--0-0-0-0-0-3-0-2---8/10-10/12-12-o||
C||--0-0-0-0-0-3-0-2-----------0-0-0-0-0-3-0-2------------------||
     pm- - - -   -             - - - - -   -
“YOU CAN’T SCAR ME!!!         YOU CAN’T!!!
 YOU CAN’T SCAR ME!!!         YOU CAN’T!!!”


-Solo-
D|-----------------------------------------|
A|-14h15-15-14~~~--14h15-15-14---14-12-10--|
F|-----------------------------------------|
C|-----------------------------------------|
G|-----------------------------------------|
C|-----------------------------------------|

D|--------------------------------------------------------------|
A|--10-12----12------12/15--15-14~~~--14/12---------------------|
F|--------14----14--------------------------14------------------|
C|---------------------------------------------15/14------------|
G|----------------------------------------------------15-14br~--|
C|--------------------------------------------------------------|

-Chorus-
D|------------------------------------------------|
A|------------------------------------------------|
F|--------------------------10-9~~~----10-9--7~~~-|
C|-8--7~~~----8--7--3~~~----8--7~~~----8--7--5~~~-|
G|-8--7~~~----8--7--3~~~----8--7~~~----8--7--5~~~-|
C|-8--7~~~----8--7--3~~~----8--7~~~----8--7--5~~~-|
“Soon I       will fall    like the     wall..”

Gtr 1
D||-----------------------------------|
A||o----------------------------------|
F||-----------------------------------|
C||--8-7----------8-7-3---------------|
G||o-8-7-7-7-7-7--8-7-3-3-3-3-3-3-3-3-|
C||--8-7-7-7-7-7--8-7-3-3-3-3-3-3-3-3-|
                              pm- - -
D|-----------------------------------||
A|----------------------------------o||
F|-----------------------------------||
C|-8-7----------8-7-5----------------||
G|-8-7-7-7-7-7--8-7-5-5-5-5-5-5-5-5-o||
C|-8-7-7-7-7-7--8-7-5-5-5-5-5-5-5-5--||
                            pm- - -
Gtr 2
D|-------------------------------------------------------|
A|-------------------------------------------------------|
F|-12121212-14141414-15151515-17171717-19191919-21212121-|
C|-------------------------------------------------------|
G|-10101010-12121212-13131313-15151515-17171717-19191919-|
C|-------------------------------------------------------|

D||--------------------------------------||
A||o------------------------------------o||
F||-22-22-22-22-22-22-22-22-22-22-22-22--||
C||--------------------------------------||
G||o20-20-20-20-20-20-20-20-20-20-20-20-o||
C||--------------------------------------||

Gtr 1
D||-------------------------------------|
A||o------------------------------------|
F||-------------------------------------|
C||--8-7--------------8-7-3-------------|
G||o-8-7-0-0-0-0-0-0--8-7-3-0-0-0-0-0-0-|
C||--8-7-0-0-0-0-0-0--8-7-3-0-0-0-0-0-0-|
         pm- - - - -        - - - - - -
D|-------------------------------------||-------------------|
A|------------------------------------o||-------------------|
F|-------------------------------------||-------------------|
C|-8-7--------------8-7-5--------------||--8---7~~~~~~------|
G|-8-7-0-0-0-0-0-0--8-7-5-0-0-0-0-0-0-o||--8---7~~~~~~------|
C|-8-7-0-0-0-0-0-0--8-7-5-0-0-0-0-0-0--||--8---7~~~~~~------|
       pm- - - - -        - - - - - -
Gtr 2
D||--------------------------------------||-------------------|
A||o------------------------------------o||-------------------|
F||-22-22-22-22-22-22-22-22-22-22-22-22--||-22-22---22-22--22-|
C||--------------------------------------||-------------------|
G||o20-20-20-20-20-20-20-20-20-20-20-20-o||-20-20---20-20--20-|
C||--------------------------------------||-------------------|
“And how the fuck does it feel?
And how the fuck did you figure?”
Tap to rate this tab
# A B C D E F G H I J K L M N O P Q R S T U V W X Y Z