Guitaretab - guitar tabs
Song name
# A B C D E F G H I J K L M N O P Q R S T U V W X Y Z

36 Crazyfists - At The End Of August tab

Song: At the end of August
Artist: 36 Crazyfists
Album: A Snow Capped Romance
Tuning: drop C
Tabbed by: Brett Foran (the_jet_89@hotmail.com)

I’m not sure how 36 play it live with only one guitarist but this is how
it is recorded. The intro sounds awesome when its pulled off with 2 guitars

Check out my band ‘the fallen’ at www.myspace.com/thefallen1234

please rate this tab

Intro:
Guitar 1
D------------------------------------------------------------------------|
A------------------------------------------------------------------------|
F-1111111111111111^-9999999999999999^-1111111111111111--6666666666666666-|
C-xxxxxxxxxxxxxxxx^-xxxxxxxxxxxxxxxx^-xxxxxxxxxxxxxxxx--xxxxxxxxxxxxxxxx-|
G-9999999999999999^-7777777777777777^-9999999999999999--4444444444444444-|
C------------------------------------------------------------------------|

                                                                          (x3)
   guitar 2

D------------------------------------------------------------------------|
A------------------------------------------------------------------------|
F-1111111111111111^-1111111111111111--7777777777777777^-1111111111111111-|
C-xxxxxxxxxxxxxxxx^-xxxxxxxxxxxxxxxx--xxxxxxxxxxxxxxxx^-xxxxxxxxxxxxxxxx-|
G-9999999999999999^-9999999999999999--5555555555555555^-9999999999999999-|
C------------------------------------------------------------------------|
(the bends are only played the 2nd time this riff is played)

Verse:
Guitar 1:
D--------------------------------------------------------------------|
A--------------------------------------------------------------------|
F--------------------------------------------------------------------|
C--------------------------------------------------------------------|
G-4-2-4-2-4-2-5-2-4-2-0-2-------4-2-4-2-4-2-5-2-4p2p0-2--------------|
C-4-2-4-2-4-2-5-2-4-2-0-2-(x3)--4-2-4-2-4-2-5-2-4p2p0-2--------------|

  guitar 2
D--------------------------------------------------------------------|
A--------------------------------------------------------------------|
F--------------------------------------------------------------------|
C--------------------------------------------------------------------|
G-----------------------------------------------4p2p0-2—-------------|
C-----------------------------------------------4p2p0-2—-------------|

Guitar 1 & 2
D------------------------------------------------------------------------|
A------------------------------------------------------------------------|
F------------------------------------------------------------------------|
C------------------------------------------------------------------------|
G-4-2-4-2-4-2-5-2-4-2-0-2-------4-2-5-2-4-2-5-2-4-0----------------------|
C-4-2-4-2-4-2-5-2-4-2-0-2-(x3)--4-2-5-2-4-2-5-2-4-0-(x1)-----------------|
  ‘crawling, on the floor..’

Then..
D------------------------------------------------------------------------|
A------------------------------------------------------------------------|
F------------------------------------------------------------------------|
C------------------------------------------------------------------------|
G-4-2-4-2-4-2-5-2-4-2-0-2-------4-2-5-2-4-2-5-2-5/7----------------------|
C-4-2-4-2-4-2-5-2-4-2-0-2-(x3)--4-2-5-2-4-2-5-2-5/7-(x1)-----------------|


Pre chorus
(just play intro x1)

Chorus
Guitar 1:
D-------------------------------------------------------------------------------|
A-------------------------------------------------------------------------------|
F----------------------------------------------------12-12-12-12-11-11-11-11-11-|
C-------------------------------------------------------------------------------|
G-9999999999999999-7777777777777777-5-5-5-5-5-5-4444-10-10-10-10—9--9—-9—-9—-9--|
C-9999999999999999-7777777777777777-5-5-5-5-5-5-4444----------------------------|

  guitar 2
D------------------------------------------------------------------------------|
A------------------------------------------------------------------------------|
F------------------------------------------------------------------------------|
C------------------------------------------------------------------------------|
G-9999999999999999-7777777777777777-5-5-5-5-5-5-444444444444444444444444444----|
C-9999999999999999-7777777777777777-5-5-5-5-5-5-444444444444444444444444444----|
[ Tab from: http://www.guitaretab.com/numeric/36-crazyfists/46900.html ]
Then..
(both guitars)
D----------------------------------------------------------------------------|
A----------------------------------------------------------------------------|
F—---------------------------------------------------------------------------|
C----------------------------------------------------------------------------|
G-9-(strum)-11-(strum)-12-(strum)-14-14-14-14-14-14-14-14-14-14-15-15-15-15\-|
C-9---------11---------12---------14-14-14-14-14-14-14-14-14-14-15-15-15-15\-|

(Play verse & chorus again)

Interlude
Guitar 1:
D--------------------------------------------------------------------------|
A-------------------------------7-0-7-8-0----------------------------------|
F---------------------------------------------(x2)-------------------------|
C-/9---9--------9---------9------------------------------------------------|
G----9-----12-9------10-9--------------------------------------------------|
C--------------------------------------------------------------------------|

Bridge
Guitar 1:
D-------------------------------------------------------------------------|
A-------------------------------------------------------------------------|
F--666-666-666-666-777-777-777-777-999-999-999-999-111-111-111-111--------|
C-------------------------------------------------------------------------|
G--444-444-444-444-555-555-555-555-777-777-777-777-999-999-999-999--------|
C-------------------------------------------------------------------------|
                                                                           x2
  Guitar 2:
D-------------------------------------------------------------------------|
A-------------------------------------------------------------------------|
F-------------------------------------------------------------------------|
C-------------------------------------------------------------------------|
G--999-999-999-999-777-777-777-777-555-555-555-555-444-444-444-444--------|
C--999-999-999-999-777-777-777-777-555-555-555-555-444-444-444-444--------|



(then into a chorus)




then..
outro:
guitar 1:
D--------------------------------------------------------------------|
A--------------------------------------------------------------------|
F--------------------------------------------------------------------|
C--------------------------------------------------------------------|
G-4-2-4-2-4-2-5-2-4-2-0-2-------4-2-4-2-4-2-5-2-4/5------------------|
C-4-2-4-2-4-2-5-2-4-2-0-2-(x3)--4-2-4-2-4-2-5-2-4/5------------------|

  guitar 2
D--------------------------------------------------------------------|
A--------------------------------------------------------------------|
F--------------------------------------------------------------------|
C--------------------------------------------------------------------|
G-----------------------------------------------4/5------------------|
C-----------------------------------------------4/5------------------|

Then..
Both guitars
D------------------------------------------------------------------------|
A------------------------------------------------------------------------|
F------------------------------------------------------------------------|
C------------------------------------------------------------------------|
G-4-2-4-2-4-2-5-2-4-2-0-2-------4-2-5-2-4-2-5-2-4-0----------------------|
C-4-2-4-2-4-2-5-2-4-2-0-2-(x3)--4-2-5-2-4-2-5-2-4-0-(x1)-----------------|

Then..
Both guitars
D------------------------------------------------------------------------|
A------------------------------------------------------------------------|
F------------------------------------------------------------------------|
C------------------------------------------------------------------------|
G-4-2-4-2-4-2-5-2-4-2-0-2---4-2-4-2-4-2-5-2-4—-2--0----------------------|
C-4-2-4-2-4-2-5-2-4-2-0-2---4-2-4-2-4-2-5-2-4—-2--0----------------------|

Then..
D------------------------------------------------------------------------|
A------------------------------------------------------------------------|
F------------------------------------------------------------------------|
C------------------------------------------------------------------------|
G-4-2-4-2-4-2-5-2-4-2-0-2---4-2-5-2-4-2-5-2-4/5--------------------------|
C-4-2-4-2-4-2-5-2-4-2-0-2---4-2-5-2-4-2-5-2-4/5--------------------------|


Awesome song. Enjoy

(check out www.myspace.com/thefallen1234 add us to you’re myspace friends)
Related for At The End Of August tab
At The End Of August chords by 36 Crazyfists