Song name
# A B C D E F G H I J K L M N O P Q R S T U V W X Y Z

36 Crazyfists - Bloodwork tab

Bloodwork
36 Crazyfists
A Snow Capped Romance
Drop C- CGCFAD

-Intro- x2
Gtr 1
D|---------------------------------------------------------|
A|---------------------------------------------------------|
F|---------------------------------------------------------|
C|-----9-9-10-10-9-9-------9-9-10-10-9-9-----9-9-10-10-9-9-|
G|-7-7-----------------------------------------------------|
C|-------------------10-10---------------7-7---------------|
   pm- - - -  -  - - -  -  - - -  -  - - - - - - -  -  - -

1st ending               2nd ending (both gtrs, full distortion)
D|-----------------------|----------------------|
A|-----------------------|----------------------|
F|-----------------------|-------------------ph-|
C|-------12-12-10-10-9-9-|-0-0--12-12-10-10-9*~-|
G|-----------------------|-0-0------------------|
C|-12-12-----------------|-0-0------------------|
   pm -  -  -  -  -  - -   - -

D||------------------------------------------------------------------------||
A||o----------------------------------------------------------------------o||
F||------------------------------------------------------14-14-12-12-11-11-||
C||--2-2-2-0-2-2-0-0-12-12-10-10-10-10-7-7-5-7-7-7-7-0-0-x--x--x--x--x--x--||
G||o-2-2-2-0-2-2-0-0-10-10-10-10-14-14-7-7-5-7-7-7-7-0-0-12-12-10-10-9--9-o||
C||--2-2-2-0-2-2-0-0-10-10-10-10-10-10-7-7-5-7-7-7-7-0-0-------------------||

-Verse-
Gtr 1- Light distortion
D||--------------------------------------------------------------------------------||
A||o------------------------------------------------------------------------------o||
F||--------------------------------------------------------------------------------||
C||------9-9-10-10-9-9-------9-9-10-10-9-9-----9-9-10-10-9-9-------12-12-10-10-9-9-||
G||o-7-7--------------------------------------------------------------------------o||
C||--------------------10-10---------------7-7---------------12-12-----------------||
     pm- - - -  -  - - -  -  - - -  -  - - - - - - -  -  - - -  -  -  -  -  -  - -
"...Here is your broken character..                 The one left of heaven.
....Scissors cut him from the paaaage               Example."

Gtr 1- Light distortion
D|--------------------------------------------------------------------------------|
A|--------------------------------------------------------------------------------|
F|--------------------------------------------------------------------------------|
C|------9-9-10-10-9-9-------9-9-10-10-9-9-----9-9-10-10-9-9-------12-12-10-10-9-9-|
G|-7-7----------------------------------------------------------------------------|
C|--------------------10-10---------------7-7---------------12-12-----------------|
   pm-  - - -  -  - - -  -  - - -  -  - - - - - - -  -  - - -  -  -  -  -  -  - -
Gtr 2- Light distortion
D|--------------------------------------------------------------------------------|
A|--------------------------------------------------------------------------------|
F|-/14~~~~--------14----------------------------------------------12-----11~~~~---|
C|--------------------12~~~~--------12----14~~~~-------14-------------------------|
G|--------------------------------------------------------------------------------|
C|--------------------------------------------------------------------------------|
"...Continue to read not to retrace..    the steps..         Touch me.."


Gtr 1- Light distortion
D|--------------------------------------------------------------------------------|
A|--------------------------------------------------------------------------------|
F|--------------------------------------------------------------------------------|
C|------9-9-10-10-9-9-------9-9-10-10-9-9-----9-9-10-10-9-9-------12-12-10-10-9-9-|
G|-7-7----------------------------------------------------------------------------|
C|--------------------10-10---------------7-7---------------12-12-----------------|
   pm-  - - -  -  - - -  -  - - -  -  - - - - - - -  -  - - -  -  -  -  -  -  - -
Gtr 2- Light distortion                                         |Full dist.
D|--------------------------------------------------------------|-----------------|
A|--------------------------------------------------------------|-----------------|
F|-/14~~~~--------14--------------------------------------------|--12-----11~~~~--|
C|--------------------12~~~~--------12----14~~~~-------14-------|-----------------|
G|--------------------------------------------------------------|-----------------|
C|--------------------------------------------------------------|-----------------|
"...The hemoradging has ceased..                                Has ceased.."

-Chorus-
Gtr 1,2- Distortion
D||------------------------------------------------------------------------||
A||o----------------------------------------------------------------------o||
F||------------------------------------------------------14-14-12-12-11-11-||
C||--2-2-2-0-2-2-0-0-12-12-10-10-10-10-7-7-5-7-7-7-7-0-0-x--x--x--x--x--x--||
G||o-2-2-2-0-2-2-0-0-10-10-10-10-14-14-7-7-5-7-7-7-7-0-0-12-12-10-10-9--9-o||
C||--2-2-2-0-2-2-0-0-10-10-10-10-10-10-7-7-5-7-7-7-7-0-0-------------------||
"...And I swallow these capsules         To regain my griiip..."
....And I swallowed myself siiiiiiiiiick."

Gtr 1
D|--------------------------------------------------------------------------|
A|------------------------------------------------10--8--7---10--8--7-10--8-|
F|-9~~~~-------11~~~~------12~~~~------14~~~~---9----------9----------------|
C|-x-----------x-----------x-----------x------------------------------------|
G|-7~~~~-------9~~~~-------10~~~~------12~~~~-------------------------------|
C|--------------------------------------------------------------------------|
Gtr 2
D|--------------------------------------------------------------------------|
A|--------------------------------------------------------------------------|
F|--------------------------------------------------------------------------|
C|-2-2-2-2-2-2-4-4-4-4-4-4-5-5-5-5-5-5-7-7-7-7-7-7--5-5-5--5-5--5-5-5-5-3~~-|
G|-2-2-2-2-2-2-4-4-4-4-4-4-5-5-5-5-5-5-7-7-7-7-7-7--5-5-5--5-5--5-5-5-5-3~~-|
C|-2-2-2-2-2-2-4-4-4-4-4-4-5-5-5-5-5-5-7-7-7-7-7-7--5-5-5--5-5--5-5-5-5-3~~-|
"...And I've inherited my heeeeeeeeeeaaaaaaaaaalllllth"

Gtr 1
D|--------------------------------------------------------------------------|
A|------------------------------------------------10--8--7---10--8--7-10--8-|
F|-9~~~~-------11~~~~------12~~~~------14~~~~---9----------9----------------|
C|-x-----------x-----------x-----------x------------------------------------|
G|-7~~~~-------9~~~~-------10~~~~------12~~~~-------------------------------|
C|--------------------------------------------------------------------------|
Gtr 2
D|--------------------------------------------------------------------------|
A|--------------------------------------------------------------------------|
F|--------------------------------------------------------------------------|
C|-2-2-2-2-2-2-4-4-4-4-4-4-5-5-5-5-5-5-7-7-7-7-7-7--5-5-5--5-5--5-5-5-5-3~~-|
G|-2-2-2-2-2-2-4-4-4-4-4-4-5-5-5-5-5-5-7-7-7-7-7-7--5-5-5--5-5--5-5-5-5-3~~-|
C|-2-2-2-2-2-2-4-4-4-4-4-4-5-5-5-5-5-5-7-7-7-7-7-7--5-5-5--5-5--5-5-5-5-3~~-|
"...And I've inherited my heeeeeeeeeeaaaaaaaaaalllllth"


-Verse-
Gtr 1- Light distortion
D||--------------------------------------------------------------------------------||
A||o------------------------------------------------------------------------------o||
F||--------------------------------------------------------------------------------||
C||------9-9-10-10-9-9-------9-9-10-10-9-9-----9-9-10-10-9-9-------12-12-10-10-9-9-||
G||o-7-7--------------------------------------------------------------------------o||
C||--------------------10-10---------------7-7---------------12-12-----------------||
     pm- - - -  -  - - -  -  - - -  -  - - - - - - -  -  - - -  -  -  -  -  -  - -
"...Here is your wake and smile..                   That you seem to neeed.
....Safe and the touch..                            And the unweave.."

Gtr 1- Light distortion
D|--------------------------------------------------------------------------------|
A|--------------------------------------------------------------------------------|
F|--------------------------------------------------------------------------------|
C|------9-9-10-10-9-9-------9-9-10-10-9-9-----9-9-10-10-9-9-------12-12-10-10-9-9-|
G|-7-7----------------------------------------------------------------------------|
C|--------------------10-10---------------7-7---------------12-12-----------------|
   pm-  - - -  -  - - -  -  - - -  -  - - - - - - -  -  - - -  -  -  -  -  -  - -
Gtr 2- Light distortion
D|--------------------------------------------------------------------------------|
A|--------------------------------------------------------------------------------|
F|-/14~~~~--------14----------------------------------------------12-----11~~~~---|
C|--------------------12~~~~--------12----14~~~~-------14-------------------------|
G|--------------------------------------------------------------------------------|
C|--------------------------------------------------------------------------------|
"...Right where you placed it the night before, Saint checks in to make suree"


Gtr 1- Light distortion
D|--------------------------------------------------------------------------------|
A|--------------------------------------------------------------------------------|
F|--------------------------------------------------------------------------------|
C|------9-9-10-10-9-9-------9-9-10-10-9-9-----9-9-10-10-9-9-------12-12-10-10-9-9-|
G|-7-7----------------------------------------------------------------------------|
C|--------------------10-10---------------7-7---------------12-12-----------------|
   pm-  - - -  -  - - -  -  - - -  -  - - - - - - -  -  - - -  -  -  -  -  -  - -
Gtr 2- Light distortion                                         |Full dist.
D|--------------------------------------------------------------|-----------------|
A|--------------------------------------------------------------|-----------ph----|
F|-/14~~~~--------14--------------------------------------------|--12-----11*~~~--|
C|--------------------12~~~~--------12----14~~~~-------14-------|-----------------|
G|--------------------------------------------------------------|-----------------|
C|--------------------------------------------------------------|-----------------|
"...You're right where you say that you are..          Right where you are.."

-Chorus-
Gtr 1,2- Distortion
D||------------------------------------------------------------------------||
A||o----------------------------------------------------------------------o||
F||------------------------------------------------------14-14-12-12-11-11-||
C||--2-2-2-0-2-2-0-0-12-12-10-10-10-10-7-7-5-7-7-7-7-0-0-x--x--x--x--x--x--||
G||o-2-2-2-0-2-2-0-0-10-10-10-10-14-14-7-7-5-7-7-7-7-0-0-12-12-10-10-9--9-o||
C||--2-2-2-0-2-2-0-0-10-10-10-10-10-10-7-7-5-7-7-7-7-0-0-------------------||
"...And I swallow these capsules         To regain my griiip..."
....And I swallowed myself siiiiiiiiiick."

Gtr 1
D|--------------------------------------------------------------------------|
A|------------------------------------------------10--8--7---10--8--7-10--8-|
F|-9~~~~-------11~~~~------12~~~~------14~~~~---9----------9----------------|
C|-x-----------x-----------x-----------x------------------------------------|
G|-7~~~~-------9~~~~-------10~~~~------12~~~~-------------------------------|
C|--------------------------------------------------------------------------|
Gtr 2
D|--------------------------------------------------------------------------|
A|--------------------------------------------------------------------------|
F|--------------------------------------------------------------------------|
C|-2-2-2-2-2-2-4-4-4-4-4-4-5-5-5-5-5-5-7-7-7-7-7-7--5-5-5--5-5--5-5-5-5-3~~-|
G|-2-2-2-2-2-2-4-4-4-4-4-4-5-5-5-5-5-5-7-7-7-7-7-7--5-5-5--5-5--5-5-5-5-3~~-|
C|-2-2-2-2-2-2-4-4-4-4-4-4-5-5-5-5-5-5-7-7-7-7-7-7--5-5-5--5-5--5-5-5-5-3~~-|
"...And I've inherited my heeeeeeeeeeaaaaaaaaaalllllth"

Gtr 1
D|--------------------------------------------------------------------------|
A|------------------------------------------------10--8--7---10--8--7-10--8-|
F|-9~~~~-------11~~~~------12~~~~------14~~~~---9----------9----------------|
C|-x-----------x-----------x-----------x------------------------------------|
G|-7~~~~-------9~~~~-------10~~~~------12~~~~-------------------------------|
C|--------------------------------------------------------------------------|
Gtr 2
D|--------------------------------------------------------------------------|
A|--------------------------------------------------------------------------|
F|--------------------------------------------------------------------------|
C|-2-2-2-2-2-2-4-4-4-4-4-4-5-5-5-5-5-5-7-7-7-7-7-7--5-5-5--5-5--5-5-5-5-3~~-|
G|-2-2-2-2-2-2-4-4-4-4-4-4-5-5-5-5-5-5-7-7-7-7-7-7--5-5-5--5-5--5-5-5-5-3~~-|
C|-2-2-2-2-2-2-4-4-4-4-4-4-5-5-5-5-5-5-7-7-7-7-7-7--5-5-5--5-5--5-5-5-5-3~~-|
"...And I've inherited my heeeeeeeeeeaaaaaaaaaalllllth"

-Breakdown-
Gtr 1,2
D|-------------|
A|-------------|
F|-------------|
C|-2-2-2-2-2-2-|
G|-2-2-2-2-2-2-|
C|-2-2-2-2-2-2-|
   pm- - - - -

Gtr 1
D||---------------------------------||
A||o-------------------------------o||
F||-------------------------pm------||
C||--2-2-2---5-5-5---4-4-4---0-0~~--||x4
G||o-2-2-2---2-2-2---2-2-2---0-0~~-o||
C||--2-2-2---2-2-2---2-2-2---0-0~~--||
Gtr 2
D||---------------------------------||
A||o-------------------------------o||
F||-------------------------pm------||
C||--2-2-2---2-2-2---2-2-2---0-0~~--||x4
G||o-2-2-2---2-2-2---2-2-2---0-0~~-o||
C||--2-2-2---2-2-2---2-2-2---0-0~~--||
"...THEY ALL SEEMED SO TRUTHFUL!!
THEY ALL SEEMED SO TRUE!
THEY ALL SEEMED SO TRUTHFUL!!!
THEY ALL SEEMED SO TRUE!"

Gtr 1,2
D||-------------------------------||------------------------|
A||o-----------------------------o||------------------------|
F||-------------------------------||------------------------|
C||--2-2-2---2-2-2---2-2-2---0-2--||-2-2-2---2-2-2--2-2-2-2-|
G||o-2-2-2---2-2-2---2-2-2---0-2-o||-2-2-2---2-2-2--2-2-2-2-|
C||--2-2-2---2-2-2---2-2-2---0-2--||-2-2-2---2-2-2--2-2-2-2-|
"...COULDN'T FIND A BETTER WAY!!                    pm- - -
COULDN'T FIND A BETTER WAY!!

...TO LIE!!!"

-Chorus-
Gtr 1,2- Distortion
D||------------------------------------------------------------------------||
A||o----------------------------------------------------------------------o||
F||------------------------------------------------------14-14-12-12-11-11-||
C||--2-2-2-0-2-2-0-0-12-12-10-10-10-10-7-7-5-7-7-7-7-0-0-x--x--x--x--x--x--||
G||o-2-2-2-0-2-2-0-0-10-10-10-10-14-14-7-7-5-7-7-7-7-0-0-12-12-10-10-9--9-o||
C||--2-2-2-0-2-2-0-0-10-10-10-10-10-10-7-7-5-7-7-7-7-0-0-------------------||
"...And I swallow these capsules         To regain my griiip..."
....And I swallowed myself siiiiiiiiiick."

Gtr 1
D|--------------------------------------------------------------------------|
A|------------------------------------------------10--8--7---10--8--7-10--8-|
F|-9~~~~-------11~~~~------12~~~~------14~~~~---9----------9----------------|
C|-x-----------x-----------x-----------x------------------------------------|
G|-7~~~~-------9~~~~-------10~~~~------12~~~~-------------------------------|
C|--------------------------------------------------------------------------|
Gtr 2
D|--------------------------------------------------------------------------|
A|--------------------------------------------------------------------------|
F|--------------------------------------------------------------------------|
C|-2-2-2-2-2-2-4-4-4-4-4-4-5-5-5-5-5-5-7-7-7-7-7-7--5-5-5--5-5--5-5-5-5-3~~-|
G|-2-2-2-2-2-2-4-4-4-4-4-4-5-5-5-5-5-5-7-7-7-7-7-7--5-5-5--5-5--5-5-5-5-3~~-|
C|-2-2-2-2-2-2-4-4-4-4-4-4-5-5-5-5-5-5-7-7-7-7-7-7--5-5-5--5-5--5-5-5-5-3~~-|
"...And I've inherited my heeeeeeeeeeaaaaaaaaaalllllth"

Gtr 1
D|--------------------------------------------------------------------------|
A|------------------------------------------------10--8--7---10--8--7-10--8-|
F|-9~~~~-------11~~~~------12~~~~------14~~~~---9----------9----------------|
C|-x-----------x-----------x-----------x------------------------------------|
G|-7~~~~-------9~~~~-------10~~~~------12~~~~-------------------------------|
C|--------------------------------------------------------------------------|

Gtr 2
D|--------------------------------------------------------------------------|
A|--------------------------------------------------------------------------|
F|--------------------------------------------------------------------------|
C|-2-2-2-2-2-2-4-4-4-4-4-4-5-5-5-5-5-5-7-7-7-7-7-7--5-5-5--5-5--5-5-5-5-3~~-|
G|-2-2-2-2-2-2-4-4-4-4-4-4-5-5-5-5-5-5-7-7-7-7-7-7--5-5-5--5-5--5-5-5-5-3~~-|
C|-2-2-2-2-2-2-4-4-4-4-4-4-5-5-5-5-5-5-7-7-7-7-7-7--5-5-5--5-5--5-5-5-5-3~~-|
"...And I've inherited my heeeeeeeeeeaaaaaaaaaalllllth"

-Breakdown-
Gtr 1,2
D|-------------|
A|-------------|
F|-------------|
C|-2-2-2-2-2-2-|
G|-2-2-2-2-2-2-|
C|-2-2-2-2-2-2-|
   pm- - - - -

Gtr 1
D||---------------------------------||
A||o-------------------------------o||
F||-------------------------pm------||
C||--2-2-2---5-5-5---4-4-4---0-0~~--||x4
G||o-2-2-2---2-2-2---2-2-2---0-0~~-o||
C||--2-2-2---2-2-2---2-2-2---0-0~~--||
Gtr 2
D||---------------------------------||
A||o-------------------------------o||
F||-------------------------pm------||
C||--2-2-2---2-2-2---2-2-2---0-0~~--||x4
G||o-2-2-2---2-2-2---2-2-2---0-0~~-o||
C||--2-2-2---2-2-2---2-2-2---0-0~~--||
"...THEY ALL SEEMED SO TRUTHFUL!!
THEY ALL SEEMED SO TRUE!
THEY ALL SEEMED SO TRUTHFUL!!!
THEY ALL SEEMED SO TRUE!"

Gtr 1,2
D||-------------------------------||
A||o-----------------------------o||
F||-------------------------------||
C||--2-2-2---2-2-2---2-2-2---0-2--||
G||o-2-2-2---2-2-2---2-2-2---0-2-o||x4
C||--2-2-2---2-2-2---2-2-2---0-2--||
"...COULDN'T FIND A BETTER WAY!!
COULDN'T FIND A BETTER WAY!!
COULDN'T FIND A BETTER WAY!!
COUDLN'T FIND A BETTER WAY!!"

D|----------------------------------|
A|----------------------------------|
F|----------------------------------|
C|-2-2-2---2-2-2---2-2-2---2-2-2--2-|
G|-2-2-2---2-2-2---2-2-2---2-2-2--2-|
C|-2-2-2---2-2-2---2-2-2---2-2-2--2-|
"... TO LIE!!!! (TO LIE!!!)"

D|--------------------------|
A|--------------------------|
F|--------------------------|
C|-2-2-2---2-2-2---2-2-2--2-|
G|-2-2-2---2-2-2---2-2-2--2-|
C|-2-2-2---2-2-2---2-2-2--2-|
"... TO LIE!!!! (TO LIE!!!)"
Tap to rate this tab
# A B C D E F G H I J K L M N O P Q R S T U V W X Y Z