Song name
# A B C D E F G H I J K L M N O P Q R S T U V W X Y Z

36 Crazyfists - Skin And Atmosphere tab

Skin and Atmosphere
36 Crazyfists
A Snow Capped Romance
Drop C- CGCFAD

-Intro-
Gtr 1- Clean
D||------------------------------------------------||
A||o----------------------------------------------o||
F||--5-5-5-5-5-5-7-7-4-4-4-4-4-4-4-4-0-0-0-7-7-7---||
C||--7-7-7-7-7-7-9-9-7-7-7-7-5-5-5-5-5-5-5-5-5-5---||
G||o----------------------------------------------o||
C||------------------------------------------------||
“Think I’ll rename my heart the calendar...
‘Cause it’ll sure know just when to end...”

D|-----------------------------------------|
A|-----------------------------------------|
F|--5-5-5-5-5-5-7-7-4-4-4-4-4-4-4-4-0-0-0--|
C|--7-7-7-7-7-7-9-9-7-7-7-7-5-5-5-5-5-5-5--|
G|-----------------------------------------|
C|-----------------------------------------|

Gtr 1- Distortion
D|----------|
A|----7*----|
F|--harm----|
C|----------|
G|----------|
C|----------|
Gtr 2- Distortion
D|----------|
A|----------|
F|-5*-------|
C|-harm-----|
G|----------|
C|----------|
“To end..”

Gtr 1,2- Distortion
D|--------------------------------------------------------------------|
A|--------------------------------------------------------------------|
F|-----5-5-5-4-4-4-5-5-5-4-4-4-5-5------------------------------------|
C|-3-3-3-3-3-3-3-3-3-3-3-3-3-3-3-3-7-7-101010-9-9-9-101010-9-9-9-1010-|
G|-3-3-3-3-3-3-3-3-3-3-3-3-3-3-3-3-7-7-7-7-7--7-7-7-7-7-7--7-7-7-7-7--|
C|-3-3-3-3-3-3-3-3-3-3-3-3-3-3-3-3-7-7-7-7-7--7-7-7-7-7-7--7-7-7-7-7--|

D|----------------------------------------------------------|
A|----------------------------------------------------------|
F|-----5-5-5-4-4-4-5-5-5-4-4-4-5-5------------5-5-5-4-4-4-5-|
C|-3-3-3-3-3-3-3-3-3-3-3-3-3-3-3-3-1010-9-2-2-2-2-2-2-2-2-2-|
G|-3-3-3-3-3-3-3-3-3-3-3-3-3-3-3-3-7-7--7-2-2-2-2-2-2-2-2-2-|
C|-3-3-3-3-3-3-3-3-3-3-3-3-3-3-3-3-7-7--7-2-2-2-2-2-2-2-2-2-|

-Verse- x4
Gtr 1,2- Clean
D||------------------------------------------------||
A||o----------------------------------------------o||
F||--5-5-5-5-5-5-7-7-4-4-4-4-4-4-4-4-0-0-0-7-7-7---||
C||--7-7-7-7-7-7-9-9-7-7-7-7-5-5-5-5-5-5-5-5-5-5---||
G||o----------------------------------------------o||
C||------------------------------------------------||
“Think I’ll rename my heart the calendar...
‘Cause it’ll sure know just when to end...
& I’ve been looking at you through the telephone,
As the photograph whispers that she isn’t even home, so alone.
I bleed myself right in.”

Gtr 1
D|-----------------------------------|
A|-----------------------------------|
F|--5-5-5-5-5-5-5-5-4-4-4-4-5-5-5-5--|
C|--7-7-7-7-7-7-7-7-7-7-7-7-7-7-7-7--|
G|--0-0-0-0-0-0-0-0-0-0-0-0-0-0-0-0--|
C|-----------------------------------|
Gtr 2
D|------------------------------------------------|
A|------------------------------------------------|
F|--141414141414-16-121212121212-16-171717171717--|
C|------------------------------------------------|
G|--121212121212-14-101010101010-14-151515151515--|
C|------------------------------------------------|
“Unusual...   Here breathing...

Gtr 1
D|-----------------------------------|
A|-----------------------------------|
F|--5-5-5-5-5-5-5-5-4-4-4-4-5-5-5-5--|
C|--7-7-7-7-7-7-7-7-7-7-7-7-7-7-7-7--|
G|--0-0-0-0-0-0-0-0-0-0-0-0-0-0-0-0--|
C|-----------------------------------|
Gtr 2
D|--------------------------------------|
A|--------------------------------------|
F|--141414141414-16-1212-10101010-7777--|
C|--------------------------------------|
G|--121212121212-14-1010-8-8-8-8--5555--|
C|--------------------------------------|
“Inviting...  THE SILENCE!!!”

Gtr 1,2- Distortion
D|---------|
A|---------|
F|--9br~---|
C|---------|
G|--7br~---|
C|---------|

-Chorus-
Gtr 1,2- Distortion
D|--------------------------------------------------------------------|
A|--------------------------------------------------------------------|
F|-----5-5-5-4-4-4-5-5-5-4-4-4-5-5------------------------------------|
C|-3-3-3-3-3-3-3-3-3-3-3-3-3-3-3-3-7-7-101010-9-9-9-101010-9-9-9-1010-|
G|-3-3-3-3-3-3-3-3-3-3-3-3-3-3-3-3-7-7-7-7-7--7-7-7-7-7-7--7-7-7-7-7--|
C|-3-3-3-3-3-3-3-3-3-3-3-3-3-3-3-3-7-7-7-7-7--7-7-7-7-7-7--7-7-7-7-7--|
“But you’re not here, you’re nowhere near at all..”

D|----------------------------------------------------------|
A|----------------------------------------------------------|
F|-----5-5-5-4-4-4-5-5-5-4-4-4-5-5------------5-5-5-4-4-4-5-|
C|-3-3-3-3-3-3-3-3-3-3-3-3-3-3-3-3-1010-9-2-2-2-2-2-2-2-2-2-|
G|-3-3-3-3-3-3-3-3-3-3-3-3-3-3-3-3-7-7--7-2-2-2-2-2-2-2-2-2-|
C|-3-3-3-3-3-3-3-3-3-3-3-3-3-3-3-3-7-7--7-2-2-2-2-2-2-2-2-2-|
“Just Skin & Atmosphere..”

Gtr 1
D|------------------------------------------------|
A|------------------------------------------------|
F|------------------------------------------------|
C|-3--3--3--3--3--3--3--3--7--7--7--7--7--7--7--7-|
G|-3--3--3--3--3--3--3--3--7--7--7--7--7--7--7--7-|
C|-3--3--3--3--3--3--3--3--7--7--7--7--7--7--7--7-|
Gtr 2
D|------------------------------------------------|
A|------------------------------------------------|
F|-9~~~~--10~~~~--7~~~~--9~~~~--14--9~~--14~~-9~~-|
C|------------------------------------------------|
G|-7~~~~--8~~~~~--5~~~~--7~~~~--12--7~~--12~~-7~~-|
C|------------------------------------------------|
“And if it’s now what you wanted.. better get out now

Gtr 1
D|-----------------------------------------------|
A|-----------------------------------------------|
F|-----------------------------------------------|
C|-3--3--3--3--3--3--3--3--7-7-7-2-2-2-2-2-2-2-2-|
G|-3--3--3--3--3--3--3--3--7-7-7-2-2-2-2-2-2-2-2-|
C|-3--3--3--3--3--3--3--3--7-7-7-2-2-2-2-2-2-2-2-|
Gtr 2
D|-----------------------------------------------|
A|-----------------------------------------------|
F|-10~~--12~~---17~~~~---16~~~~---14~~~~---12~~--|
C|-----------------------------------------------|
G|-8~~~--10~~---15~~~~---14~~~~---12~~~~---10~~--|
C|-----------------------------------------------|
Alone it takes me, underneath it will surely break me..”

Gtr 2 w/tremolo effect
D|------------------------------------------------------|
A|------------------------------------------------------|
F|-----5~~~------4~----4~~~-------5~~~------4~----4~~~--|
C|--7~~~------------7~~~-------7~~~------------7~~~-----|
G|------------------------------------------------------|
C|------------------------------------------------------|
                   “Underneath these thiiinnnngggs..”
-Verse- x4
Gtr 1,2- Clean
D||------------------------------------------------||
A||o----------------------------------------------o||
F||--5-5-5-5-5-5-7-7-4-4-4-4-4-4-4-4-0-0-0-7-7-7---||
C||--7-7-7-7-7-7-9-9-7-7-7-7-5-5-5-5-5-5-5-5-5-5---||
G||o----------------------------------------------o||
C||------------------------------------------------||
“Twenty some years, my parents let themselves leave..
I always swore that would never, ever be me..
And now you’re looking at me through a new lens,
Your voice on the other end doesn’t understand anything..
Nor Do I..  Paper cuts for meee.”

Gtr 1
D|-----------------------------------|
A|-----------------------------------|
F|--5-5-5-5-5-5-5-5-4-4-4-4-5-5-5-5--|
C|--7-7-7-7-7-7-7-7-7-7-7-7-7-7-7-7--|
G|--0-0-0-0-0-0-0-0-0-0-0-0-0-0-0-0--|
C|-----------------------------------|
Gtr 2
D|------------------------------------------------|
A|------------------------------------------------|
F|--141414141414-16-121212121212-16-171717171717--|
C|------------------------------------------------|
G|--121212121212-14-101010101010-14-151515151515--|
C|------------------------------------------------|
“Unusual...   Here breathing...

Gtr 1
D|-----------------------------------|
A|-----------------------------------|
F|--5-5-5-5-5-5-5-5-4-4-4-4-5-5-5-5--|
C|--7-7-7-7-7-7-7-7-7-7-7-7-7-7-7-7--|
G|--0-0-0-0-0-0-0-0-0-0-0-0-0-0-0-0--|
C|-----------------------------------|
Gtr 2
D|--------------------------------------|
A|--------------------------------------|
F|--141414141414-16-1212-10101010-7777--|
C|--------------------------------------|
G|--121212121212-14-1010-8-8-8-8--5555--|
C|--------------------------------------|
“Inviting.. The silence..”


Gtr 1,2- Distortion
D|---------|
A|---------|
F|--9br~---|
C|---------|
G|--7br~---|
C|---------|

-Chorus-
Gtr 1,2- Distortion
D|--------------------------------------------------------------------|
A|--------------------------------------------------------------------|
F|-----5-5-5-4-4-4-5-5-5-4-4-4-5-5------------------------------------|
C|-3-3-3-3-3-3-3-3-3-3-3-3-3-3-3-3-7-7-101010-9-9-9-101010-9-9-9-1010-|
G|-3-3-3-3-3-3-3-3-3-3-3-3-3-3-3-3-7-7-7-7-7--7-7-7-7-7-7--7-7-7-7-7--|
C|-3-3-3-3-3-3-3-3-3-3-3-3-3-3-3-3-7-7-7-7-7--7-7-7-7-7-7--7-7-7-7-7--|
“But you’re not here, you’re nowhere near at all..”

D|----------------------------------------------------------|
A|----------------------------------------------------------|
F|-----5-5-5-4-4-4-5-5-5-4-4-4-5-5------------5-5-5-4-4-4-5-|
C|-3-3-3-3-3-3-3-3-3-3-3-3-3-3-3-3-1010-9-2-2-2-2-2-2-2-2-2-|
G|-3-3-3-3-3-3-3-3-3-3-3-3-3-3-3-3-7-7--7-2-2-2-2-2-2-2-2-2-|
C|-3-3-3-3-3-3-3-3-3-3-3-3-3-3-3-3-7-7--7-2-2-2-2-2-2-2-2-2-|
“Just Skin & Atmosphere..”

Gtr 1
D|------------------------------------------------|
A|------------------------------------------------|
F|------------------------------------------------|
C|-3--3--3--3--3--3--3--3--7--7--7--7--7--7--7--7-|
G|-3--3--3--3--3--3--3--3--7--7--7--7--7--7--7--7-|
C|-3--3--3--3--3--3--3--3--7--7--7--7--7--7--7--7-|
Gtr 2
D|------------------------------------------------|
A|------------------------------------------------|
F|-9~~~~--10~~~~--7~~~~--9~~~~--14--9~~--14~~-9~~-|
C|------------------------------------------------|
G|-7~~~~--8~~~~~--5~~~~--7~~~~--12--7~~--12~~-7~~-|
C|------------------------------------------------|
“And if it’s now what you wanted.. better get out now

Gtr 1
D|-----------------------------------------------|
A|-----------------------------------------------|
F|-----------------------------------------------|
C|-3--3--3--3--3--3--3--3--7-7-7-2-2-2-2-2-2-2-2-|
G|-3--3--3--3--3--3--3--3--7-7-7-2-2-2-2-2-2-2-2-|
C|-3--3--3--3--3--3--3--3--7-7-7-2-2-2-2-2-2-2-2-|
Gtr 2
D|-----------------------------------------------|
A|-----------------------------------------------|
F|-10~~--12~~---17~~~~---16~~~~---14~~~~---12~~--|
C|-----------------------------------------------|
G|-8~~~--10~~---15~~~~---14~~~~---12~~~~---10~~--|
C|-----------------------------------------------|
Alone it takes me, underneath it will surely break me..”


-Bridge-
Gtr 1- Clean
D|---------------------------------------|
A|---------------------------------------|
F|---------------------------------------|
C|-10-9-7-----10-9-7--10-9-7------10-9-7-|
G|--------8-8----------------8-8---------|
C|---------------------------------------|
   pm - - - - -- - -  -- - - - -  -- - -

Gtr 1,2- Distortion
D|------------------------------------|
A|------------------------------------|
F|------------------------------------|
C|------------------------------------|
G|--3-2-0-----3-2-0--3-2-0-----3-2-0--|
C|--------3-3--------------3-3--------|
    pm- - - - - - -  - - - - - - - -
“PROVE ME WRONG!!! I WANT YOU!!!”

D|----------------------------------------|
A|----------------------------------------|
F|----------------------------------------|
C|----------------------------------------|
G|--3-2-0-----3-2-0--3*-2*-0------3*-2-0--|
C|--------3-3----------------3-3*---------|
    - - - - -               
“TO PROVE ME!!   WRONG!!!    PROVE ME!!!”

Gtr 1,2
D|--------------------------------------|
A|--------------------------------------|
F|--------------------------------------|
C|--3-2-0-3-3-3--2-0-0--2-0-3-3-3--2-0--|
G|--3-2-0-3-3-3--2-0-0--2-0-3-3-3--2-0--|
C|--3-2-0-3-3-3--2-0-0--2-0-3-3-3--2-0--|
    pm- - - - -  - - -  - - - - -  - -

D||---------------------------------------------------------------||
A||o-------------------------------------------------------------o||
F||--------------------------ph-----------------------------------||
C||--2-2-2--2--2-2-2-2--10-9-7*~---2-2-2--2--2-2-2-2--10-9-7--ph--||
G||o-2-2-2--2--2-2-2-2-------------2-2-2--2--2-2-2-2---------8*~-o||
C||--2-2-2--2--2-2-2-2-------------2-2-2--2--2-2-2-2--------------||
                        pm -                          -  - -
“WRONG!! I WANT YOU!!! TO PROVE ME!!! WRONG!!”

D|-------------------------------------------|
A|-------------------------------------------|
F|------5~~--4-------------------------------|
C|-0-3----------------------7-7-7-7-7-7-7--2-|
G|-0-3--3~~--2--------------7-7-7-7-7-7-7--2-|
C|-0-3----------------------7-7-7-7-7-7-7--2-|
“But you’re not here..”     pm- - - - - -

-Chorus-
Gtr 1,2- Distortion
D|--------------------------------------------------------------------|
A|--------------------------------------------------------------------|
F|-----5-5-5-4-4-4-5-5-5-4-4-4-5-5------------------------------------|
C|-3-3-3-3-3-3-3-3-3-3-3-3-3-3-3-3-7-7-101010-9-9-9-101010-9-9-9-1010-|
G|-3-3-3-3-3-3-3-3-3-3-3-3-3-3-3-3-7-7-7-7-7--7-7-7-7-7-7--7-7-7-7-7--|
C|-3-3-3-3-3-3-3-3-3-3-3-3-3-3-3-3-7-7-7-7-7--7-7-7-7-7-7--7-7-7-7-7--|
“You’re nowhere near at all..”

D|----------------------------------------------------------|
A|----------------------------------------------------------|
F|-----5-5-5-4-4-4-5-5-5-4-4-4-5-5------------5-5-5-4-4-4-5-|
C|-3-3-3-3-3-3-3-3-3-3-3-3-3-3-3-3-1010-9-2-2-2-2-2-2-2-2-2-|
G|-3-3-3-3-3-3-3-3-3-3-3-3-3-3-3-3-7-7--7-2-2-2-2-2-2-2-2-2-|
C|-3-3-3-3-3-3-3-3-3-3-3-3-3-3-3-3-7-7--7-2-2-2-2-2-2-2-2-2-|
“Just Skin & Atmosphere..”
Gtr 1
D|------------------------------------------------|
A|------------------------------------------------|
F|------------------------------------------------|
C|-3--3--3--3--3--3--3--3--7--7--7--7--7--7--7--7-|
G|-3--3--3--3--3--3--3--3--7--7--7--7--7--7--7--7-|
C|-3--3--3--3--3--3--3--3--7--7--7--7--7--7--7--7-|
Gtr 2
D|------------------------------------------------|
A|------------------------------------------------|
F|-9~~~~--10~~~~--7~~~~--9~~~~--14--9~~--14~~-9~~-|
C|------------------------------------------------|
G|-7~~~~--8~~~~~--5~~~~--7~~~~--12--7~~--12~~-7~~-|
C|------------------------------------------------|
“And if it’s now what you wanted.. better get out now

Gtr 1
D|-----------------------------------------------|
A|-----------------------------------------------|
F|-----------------------------------------------|
C|-3--3--3--3--3--3--3--3--7-7-7-2-2-2-2-2-2-2-2-|
G|-3--3--3--3--3--3--3--3--7-7-7-2-2-2-2-2-2-2-2-|
C|-3--3--3--3--3--3--3--3--7-7-7-2-2-2-2-2-2-2-2-|
Gtr 2
D|-----------------------------------------------|
A|-----------------------------------------------|
F|-10~~--12~~---17~~~~---16~~~~---14~~~~---12~~--|
C|-----------------------------------------------|
G|-8~~~--10~~---15~~~~---14~~~~---12~~~~---10~~--|
C|-----------------------------------------------|
Alone it takes me, underneath it will surely break me..”

Gtr 1,2 w/tremolo effects
D|------------------------------------------------|
A|------------------------------------------------|
F|-9~~~~--10~~~~--7~~~~--9~~~~--14--9~~--14~~-9~~-|
C|------------------------------------------------|
G|-7~~~~--8~~~~~--5~~~~--7~~~~--12--7~~--12~~-7~~-|
C|------------------------------------------------|

D|-----------------------------------------------|
A|-----------------------------------------------|
F|-10~~--12~~---17~~~~---16~~~~---14~~~~---12~~--|
C|-----------------------------------------------|
G|-8~~~--10~~---15~~~~---14~~~~---12~~~~---10~~--|
C|-----------------------------------------------|

D|------------------------------------------------|
A|------------------------------------------------|
F|-9~~~~--10~~~~--7~~~~--9~~~~--14--9~~--14~~-9~~-|
C|------------------------------------------------|
G|-7~~~~--8~~~~~--5~~~~--7~~~~--12--7~~--12~~-7~~-|
C|------------------------------------------------|

D|---------------------------------------------------|
A|---------------------------------------------------|
F|-10~~--12~~--17~~17~~--16~~16~~--14~~14~~--12~~12--|
C|---------------------------------------------------|
G|-8~~~--10~~--15~~17~~--14~~16~~--12~~14~~--10~~10--|
C|---------------------------------------------------|
“I want you.. to prove me, wrong...”

D|------------------------------------------------------|
A|------------------------------------------------------|
F|-----5~~~------4~----4~~~-------5~~~------4~----4~~~--|
C|--7~~~------------7~~~-------7~~~------------7~~~-----|
G|------------------------------------------------------|
C|------------------------------------------------------|

Gtr 1- clean
D|--0~~~~--|
A|--0~~~~--|
F|--5~~~~--|
C|--7~~~~--|
G|---------|
C|---------|
“Think I’ll rename my heart the calendarrrr..”
Tap to rate this tab
# A B C D E F G H I J K L M N O P Q R S T U V W X Y Z