Song name
# A B C D E F G H I J K L M N O P Q R S T U V W X Y Z

36 Crazyfists - The Heart And The Shape tab

The Heart & The Shape
36 Crazyfists
A Snow Capped Romance
Drop C- CGCFAD

-Intro-
Gtr 1- Distortion
D||------------------------------------------||
A||o----------------------------------------o||
F||----10p9-9-10p9-9---9---10p9-9-----10p9-9-||
C||--0~--------------0---8~---------7~-------||
G||o----------------------------------------o||
C||------------------------------------------||
(second time Gtr 2 comes in)

Gtr 1,2
D||------------------------------------------------------------------||
A||o----------------------------------------------------------------o||
F||--------------------------------10--10-10-10-10-10--9--9-9-9-9-9--||
C||--0--3-2-0-2--0-3-2-0-2--0------8---8--8--8--7--7---7--7-7-7-7-7--||
G||o-0--3-2-0-2--0-3-2-0-2--0--ph--8---8--8--8--7--7---7--7-7-7-7-7-o||
C||--0--3-2-0-2--0-3-2-0-2--0-3*b--8---8--8--8--7--7---7--7-7-7-7-7--||

-Verse-
D||--------------------------------------------------------------||
A||o---------------------------------------------------------ph-o||
F||--------------------------------------------------10---10-9*~-||
C||--8\--0-0-000-0--8\--0-0-0-000--8\--0-0-000-0---8----7--------||
G||o-8\--0-0-000-0--8\--0-0-0-000--8\--0-0-000-0---8----7-------o||
C||--8\--0-0-000-0--8\--0-0-0-000--8\--0-0-000-0---8----7--------||
         pm- --- -      - - - ---      - - --- -
“Just went through your eyes and the battle was fine.
Couldn’t stand your screaming..
Now I realize that I might have been.. 
Part of the reason for you frowning..”

-Pre Chorus-
D||------------------------------------------||
A||o----------------------------------------o||
F||----10p9-9-10p9-9---9---10p9-9-----10p9-9-||
C||--0~--------------0---8~---------7~-------||
G||o----------------------------------------o||
C||------------------------------------------||
“And so I grey the heart and the shape..”
That look that you gave staring!”

-Chorus-
D||------------------------------------------------------------------||
A||o----------------------------------------------------------------o||
F||--------------------------------10--10-10-10-10-10--9--9-9-9-9-9--||
C||--0--3-2-0-2--0-3-2-0-2--0------8---8--8--8--7--7---7--7-7-7-7-7--||
G||o-0--3-2-0-2--0-3-2-0-2--0--ph--8---8--8--8--7--7---7--7-7-7-7-7-o||
C||--0--3-2-0-2--0-3-2-0-2--0-3*b--8---8--8--8--7--7---7--7-7-7-7-7--||
                                “At empty, help me back to awake..
                                 And so I grey the heart and the shape..”
-Interlude-
D|------------------------------------------|
A|------------------------------------------|
F|------------------------------------------|
C|-8p0--0--8p0--0--7-8--8p0--0--8p0--0--5-7-|
G|-8p0--0--8p0--0--7-8--8p0--0--8p0--0--5-7-|
C|-8p0--0--8p0--0--7-8--8p0--0--8p0--0--5-7-|

D|------------------------------------------|
A|------------------------------------------|
F|------------------------------------------|
C|----------------------8p0--0--8p0--0--5-7-|
G|----------------------8p0--0--8p0--0--5-7-|
C|-8p0--0--8p0--0--7-8--8p0--0--8p0--0--5-7-|

-Verse-
D||--------------------------------------------------------------||
A||o---------------------------------------------------------ph-o||
F||--------------------------------------------------10---10-9*~-||
C||--8\--0-0-000-0--8\--0-0-0-000--8\--0-0-000-0---8----7--------||
G||o-8\--0-0-000-0--8\--0-0-0-000--8\--0-0-000-0---8----7-------o||
C||--8\--0-0-000-0--8\--0-0-0-000--8\--0-0-000-0---8----7--------||
         pm- --- -      - - - ---      - - --- -
“Now the bottle plays.. a little factor”
Not the way I used to be, thankfully..
I was discussing a different matter,
NOW I ENGAGE IN EVERYTHING! infinity..”

-Pre Chorus-
D||------------------------------------------||
A||o----------------------------------------o||
F||----10p9-9-10p9-9---9---10p9-9-----10p9-9-||
C||--0~--------------0---8~---------7~-------||
G||o----------------------------------------o||
C||------------------------------------------||
“And so I grey the heart and the shape..
That look that you gave staring!”

-Chorus-
D||------------------------------------------------------------------||
A||o----------------------------------------------------------------o||
F||--------------------------------10--10-10-10-10-10--9--9-9-9-9-9--||
C||--0--3-2-0-2--0-3-2-0-2--0------8---8--8--8--7--7---7--7-7-7-7-7--||
G||o-0--3-2-0-2--0-3-2-0-2--0--ph--8---8--8--8--7--7---7--7-7-7-7-7-o||
C||--0--3-2-0-2--0-3-2-0-2--0-3*b--8---8--8--8--7--7---7--7-7-7-7-7--||
                                “At empty help me back to awake”
                                 AND SO I GREY THE HEART AND THE SHAPE!”
-Interlude-
D|------------------------------------------|
A|------------------------------------------|
F|------------------------------------------|
C|-8p0--0--8p0--0--7-8--8p0--0--8p0--0--5-7-|
G|-8p0--0--8p0--0--7-8--8p0--0--8p0--0--5-7-|
C|-8p0--0--8p0--0--7-8--8p0--0--8p0--0--5-7-|
“HELP ME BACK TO AWAKE!!!”


D|------------------------------------------|
A|------------------------------------------|
F|------------------------------------------|
C|----------------------8p0--0--8p0--0--5-7-|
G|----------------------8p0--0--8p0--0--5-7-|
C|-8p0--0--8p0--0--7-8--8p0--0--8p0--0--5-7-|
“HELP ME BACK TO AWAKE!!!”

-Breakdown-
D||--------------------------------------||
A||o------------------------------------o||
F||--------------------------------------||
C||--8\--0--8\--0-2-3--8\--0--8\--0-3-5--||
G||o-8\--0--8\--0-2-3--8\--0--8\--0-3-5-o||
C||--8\--0--8\--0-2-3--8\--0--8\--0-3-5--||
“THERE WERE SENTENCES WITH NO DIRECTION!!!
THOSE ARE PIECES THAT I PUT AWAY!!!”

Gtr 1
D|------------------------------------------------------------------|
A|------------------------------------------------------------------|
F|------------------------------------------------------------------|
C|--3*---3*-------3*-------------------------------------3*---------|
G|-----0----0-3-5----0--3*--0-2-3------0--3*-0-2-3-----0-----0-3-5--|
C|-----0----0-3-5----0------0-2-3--3*--0-----0-2-3--3*-0-----0-3-5--|
Gtr 2
D|------------------------------------------------------------------|
A|------------------------------------------------------------------|
F|------------------------------------------------------------------|
C|--3*--3*--------3*-------------------------------------3*---------|
G|----------------------3*---------------3*-------------------------|
C|---------------------------------3*--------------3*---------------|
“THERE WAS SADNESS IN THE REFLECTION!! ONE LONG LOOK, THAT’S ALL IT...

Gtr 1
D|-----------------------------------------|
A|-----------------------------------------|
F|---10p9-9-10p9-9---9---10p9-9-----10p9-9-|
C|-0~--------------0---8~---------7--------|
G|-----------------------------------------|
C|-----------------------------------------|
Gtr 2
D|-----------------------------------------|
A|-----------------------------------------|
F|-----------------------------------------|
C|-0~~~~-----------------------------------|
G|-0~~~~-----------------------------------|
C|-0~~~~-----------------------------------|
“TAKES!!!..”

-Pre Chorus-
Gtr 1
D|----------------------------------|
A|----------------------------------|
F|---10p9-9-10p9-9---9---10p9-9-----|
C|-0~--------------0---8~---------7-|
G|----------------------------------|
C|----------------------------------|
Gtr 2
D|----------------------------------|
A|----------------------------------|
F|----------------------------------|
C|-0~~~~---------------8~~~~------7-|
G|-0~~~~---------------8~~~~------7-|
C|-0~~~~---------------8~~~~------7-|
“And so I grey the heart and the shape..”


“That look that you gave staring!!!”

-Chorus-
D||------------------------------------------------------------------||
A||o----------------------------------------------------------------o||
F||--------------------------------10--10-10-10-10-10--9--9-9-9-9-9--||
C||--0--3-2-0-2--0-3-2-0-2--0------8---8--8--8--7--7---7--7-7-7-7-7--||
G||o-0--3-2-0-2--0-3-2-0-2--0--ph--8---8--8--8--7--7---7--7-7-7-7-7-o||
C||--0--3-2-0-2--0-3-2-0-2--0-3*b--8---8--8--8--7--7---7--7-7-7-7-7--||
                                “At empty help me back to awake
                                 And so I grey the heart and the shape”
-Interlude-
D|------------------------------------------|
A|------------------------------------------|
F|------------------------------------------|
C|-8p0--0--8p0--0--7-8--8p0--0--8p0--0--5-7-|
G|-8p0--0--8p0--0--7-8--8p0--0--8p0--0--5-7-|
C|-8p0--0--8p0--0--7-8--8p0--0--8p0--0--5-7-|
“HELP ME BACK TO AWAKE!!!”

D|------------------------------------------|
A|------------------------------------------|
F|------------------------------------------|
C|----------------------8p0--0--8p0--0--5-7-|
G|----------------------8p0--0--8p0--0--5-7-|
C|-8p0--0--8p0--0--7-8--8p0--0--8p0--0--5-7-|
“HELP ME BACK TO AWAKE!!!”

-Breakdown-
D||--------------------------------------||
A||o------------------------------------o||
F||--------------------------------------||
C||--8\--0--8\--0-2-3--8\--0--8\--0-3-5--||
G||o-8\--0--8\--0-2-3--8\--0--8\--0-3-5-o||
C||--8\--0--8\--0-2-3--8\--0--8\--0-3-5--||
“THERE WERE SENTENCES WITH NO DIRECTION!!!
THOSE ARE PIECES THAT I PUT AWAY!!!”

Gtr 1
D|------------------------------------------------------------------|
A|------------------------------------------------------------------|
F|------------------------------------------------------------------|
C|--3*---3*-------3*-------------------------------------3*---------|
G|-----0----0-3-5----0--3*--0-2-3------0--3*-0-2-3-----0-----0-3-5--|
C|-----0----0-3-5----0------0-2-3--3*--0-----0-2-3--3*-0-----0-3-5--|
Gtr 2
D|------------------------------------------------------------------|
A|------------------------------------------------------------------|
F|------------------------------------------------------------------|
C|--3*--3*--------3*-------------------------------------3*---------|
G|----------------------3*---------------3*-------------------------|
C|---------------------------------3*--------------3*---------------|
“THERE WAS SADNESS IN THE REFLECTION!! ONE LONG LOOK, THAT’S ALL THAT IT..

Gtr 1,2
D|-------|
A|-------|
F|-------|
C|-0~~~~-|
G|-0~~~~-|
C|-0~~~~-|
“TAKES!!!”
Tap to rate this tab
# A B C D E F G H I J K L M N O P Q R S T U V W X Y Z