Song name
# A B C D E F G H I J K L M N O P Q R S T U V W X Y Z

36 Crazyfists - Waterhaul tab

Help us improve GuitareTab! Take a short survey!
Waterhaul
36 Crazyfists
A Snow Capped Romance
Drop C- CGCFAD
 
-Intro-
Gtr 1- Clean
D||-----------------------------------------||
A||o---------------------------------------o||
F||-----------------------------------------||
C||-----------------------------------------||
G||o---5-5----5-5----5-----5-5----5-5----5-o||
C||--0------0------0-----0------0------0----||

Gtr 1,2- Clean
D|----------------------------------------------------------------------|
A|----------------------------------------------------------------------|
F|----------------------------------------------------------------------|
C|----------------------------------------------------------------------|
G|---8-12---8-12---10---7-10---7-10---8---5-8---5-8---7---3-7---7h8p7-5-|
C|-0------0------0----0------0------0---0-----0-----0---0-----0---------|

Gtr 1
D|---------------------------------------|
A|---------------------------------------|
F|---------------------------------------|
C|---------------------------------------|
G|---5-5----5-5----5-----5-5----5-5----5-|
C|-0------0------0-----0------0------0---|

Gtr 1
D|----------------------------------------------------------------------|
A|----------------------------------------------------------------------|
F|----------------------------------------------------------------------|
C|----------------------------------------------------------------------|
G|---8-12---8-12---10---7-10---7-10---8---5-8---5-8---7---3-7---7h8p7-5-|
C|-0------0------0----0------0------0---0-----0-----0---0-----0---------|
Gtr 2
D|----------------------------------------------------------------------|
A|----------------------------------------------------------------------|
F|----------------------------------------------------------------------|
C|-7/10-10~-------------------------5/7-7~---------------------7/12-12~-|
G|----------------------------------------------------------------------|
C|----------------------------------------------------------------------|

Gtr 1,2- Distortion
D||------------------------------------------------------------------------------||
A||o----------------------------------------------------------------------------o||
F||-----------10-10-10----------9-9-9-9---------10---10-10----------14-14-14-15--||
C||--000-000-0----------000-000----------000-000---0--------000-000--------------||
G||o-000-000-0-8--8--8--000-000-7-7-7-7--000-000-8-0--8--8--000-000-12-12-12-13-o||
C||--000-000-0----------000-000----------000-000---0--------000-000--------------||
     pm- --- -          --- ---          --- ---   -        --- ---
“PRESS SKIN! INTO SKIN! JUST A FRACTION TO GATHER THE SENCSES! STILL LOCKING...”
“THE BLOOD LINE! DESIGN! JUST A SCRAPE TO UNCOVER THE EVIDENCE!”

Gtr 1
D|------------------------------------------|
A|------------------------------------------|
F|------------------------------------------|
C|--0-----0-----0-----0-----0-----0-----0---|
G|--0-----0-----0-----0-----0-----0-----0---|
C|--0-----0-----0-----0-----0-----0-----0---|
Gtr 2
D|------------------------------------------|
A|------------------------------------------|
F|--10-10-10-10-10-10-12-9-9-9-9-9-9-5-5-5--|
C|------------------------------------------|
G|------------------------------------------|
C|------------------------------------------|
“YOU! WON’T! REMOVE! ME!, NOT ANYMORE!...”

Gtr 1
D||------------------------------------------------------------------------------||
A||o----------------------------------------------------------------------------o||
F||-----------10-10-10----------9-9-9-9---------10---10-10----------14-14-14-15--||
C||--000-000-0----------000-000----------000-000---0--------000-000--------------||
G||o-000-000-0-8--8--8--000-000-7-7-7-7--000-000-8-0--8--8--000-000-12-12-12-13-o||
C||--000-000-0----------000-000----------000-000---0--------000-000--------------||
     pm- --- -          --- ---          --- ---   -        --- ---
Gtr 2
D||-----------------------------------------------------------------------------||
A||o---------------------------------------------------------------------------o||
F||-----------------------------------------------------------------------------||
C||--000-000-0--3-3-3---000-000-2-2-2-2--000-000-3-0--3--3--000-000--7-7--7-8---||
G||o-000-000-0--3-3-3---000-000-2-2-2-2--000-000-3-0--3--3--000-000--7-7--7-8--o||
C||--000-000-0--3-3-3---000-000-2-2-2-2--000-000-3-0--3--3--000-000--7-7--7-8---||
     --- --- -          --- ---          --- ---   -        --- ---
“So here we are...Now it’s obvious...Candle lit to divide all your areas”
“And inside...All your barriers...I’m defending my lines to ignite”

Gtr 1
D|------------------------------------------|
A|------------------------------------------|
F|------------------------------------------|
C|--0-----0-----0-----0-----0-----0-----0---|
G|--0-----0-----0-----0-----0-----0-----0---|
C|--0-----0-----0-----0-----0-----0-----0---|
Gtr 2
D|------------------------------------------|
A|------------------------------------------|
F|--10-10-10-10-10-10-12-9-9-9-9-9-9-5-5-5--|
C|------------------------------------------|
G|------------------------------------------|
C|------------------------------------------|
“And I’ll Be This Way Forever...”

Gtr 1- Clean
D|---------------------------------------|
A|---------------------------------------|
F|---------------------------------------|
C|---------------------------------------|
G|---5-5----5-5----5-----5-5----5-5----5-|
C|-0------0------0-----0------0------0---|

Gtr 1- Clean
D|----------------------------------------------------------------------|
A|----------------------------------------------------------------------|
F|----------------------------------------------------------------------|
C|----------------------------------------------------------------------|
G|---8-12---8-12---10---7-10---7-10---8---5-8---5-8---7---3-7---7h8p7-5-|
C|-0------0------0----0------0------0---0-----0-----0---0-----0---------|
Gtr 2- Clean
D|----------------------------------------------------------------------|
A|----------------------------------------------------------------------|
F|----------------------------------------------------------------------|
C|-7/10-10~-------------------------5/7-7~---------------------7/3-3~---|
G|----------------------------------------------------------------------|
C|----------------------------------------------------------------------|

Gtr 1
D|---------------------------------------|
A|---------------------------------------|
F|---------------------------------------|
C|---------------------------------------|
G|---5-5----5-5----5-----5-5----5-5----5-|
C|-0------0------0-----0------0------0---|

Gtr 1
D|----------------------------------------------------------------------|
A|----------------------------------------------------------------------|
F|----------------------------------------------------------------------|
C|----------------------------------------------------------------------|
G|---8-12---8-12---10---7-10---7-10---8---5-8---5-8---7---3-7---7h8p7-5-|
C|-0------0------0----0------0------0---0-----0-----0---0-----0---------|
Gtr 2
D|----------------------------------------------------------------------|
A|----------------------------------------------------------------------|
F|----------------------------------------------------------------------|
C|-7/10-10~-------------------------5/7-7~---------------------7/12-12~-|
G|----------------------------------------------------------------------|
C|----------------------------------------------------------------------|

Gtr 1,2- Distortion
D||------------------------------------------------------------------------------||
A||o----------------------------------------------------------------------------o||
F||-----------10-10-10----------9-9-9-9---------10---10-10----------14-14-14-15--||
C||--000-000-0----------000-000----------000-000---0--------000-000--------------||
G||o-000-000-0-8--8--8--000-000-7-7-7-7--000-000-8-0--8--8--000-000-12-12-12-13-o||
C||--000-000-0----------000-000----------000-000---0--------000-000--------------||
     pm- --- -          --- ---          --- ---   -        --- ---
“INSIDE!, THE LOCKS HIDE! SO MY FAITH CAN COME OUTSIDE! AND SHINE!”
“BESIDES! IT’S WHY!, ALL OF THESE MILES OF ROAD WON’T DIVIDE!”

Gtr 1
D|------------------------------------------|
A|------------------------------------------|
F|------------------------------------------|
C|--0-----0-----0-----0-----0-----0-----0---|
G|--0-----0-----0-----0-----0-----0-----0---|
C|--0-----0-----0-----0-----0-----0-----0---|
Gtr 2
D|------------------------------------------|
A|------------------------------------------|
F|--10-10-10-10-10-10-12-9-9-9-9-9-9-5-5-5--|
C|------------------------------------------|
G|------------------------------------------|
C|------------------------------------------|
“YOU! WON’T! REMOVE! ME!, NOT ANYMORE!...”

Gtr 1
D||------------------------------------------------------------------------------||
A||o----------------------------------------------------------------------------o||
F||-----------10-10-10----------9-9-9-9---------10---10-10----------14-14-14-15--||
C||--000-000-0----------000-000----------000-000---0--------000-000--------------||
G||o-000-000-0-8--8--8--000-000-7-7-7-7--000-000-8-0--8--8--000-000-12-12-12-13-o||
C||--000-000-0----------000-000----------000-000---0--------000-000--------------||
     pm- --- -          --- ---          --- ---   -        --- ---
Gtr 2
D||-----------------------------------------------------------------------------||
A||o---------------------------------------------------------------------------o||
F||-----------------------------------------------------------------------------||
C||--000-000-0--3-3-3---000-000-2-2-2-2--000-000-3-0--3--3--000-000--7-7--7-8---||
G||o-000-000-0--3-3-3---000-000-2-2-2-2--000-000-3-0--3--3--000-000--7-7--7-8--o||
C||--000-000-0--3-3-3---000-000-2-2-2-2--000-000-3-0--3--3--000-000--7-7--7-8---||
     --- --- -          --- ---          --- ---   -        --- ---
“And now its where...The secrets pushed behind...With the lanterns to burn this inside”
“And up there, A SNOW-CAPPED Romance where...Everything we build will come from our eyes”

Gtr 1
D|------------------------------------------|
A|------------------------------------------|
F|------------------------------------------|
C|--0-----0-----0-----0-----0-----0-----0---|
G|--0-----0-----0-----0-----0-----0-----0---|
C|--0-----0-----0-----0-----0-----0-----0---|
Gtr 2
D|------------------------------------------|
A|------------------------------------------|
F|--10-10-10-10-10-10-12-9-9-9-9-9-9-5-5-5--|
C|------------------------------------------|
G|------------------------------------------|
C|------------------------------------------|
“And I’ll Be This Way Forever...”

Gtr 1- Clean
D|---------------------------------------|
A|---------------------------------------|
F|---------------------------------------|
C|---------------------------------------|
G|---5-5----5-5----5-----5-5----5-5----5-|
C|-0------0------0-----0------0------0---|

Gtr 1- Clean
D|----------------------------------------------------------------------|
A|----------------------------------------------------------------------|
F|----------------------------------------------------------------------|
C|----------------------------------------------------------------------|
G|---8-12---8-12---10---7-10---7-10---8---5-8---5-8---7---3-7---7h8p7-5-|
C|-0------0------0----0------0------0---0-----0-----0---0-----0---------|
Gtr 2- Clean
D|----------------------------------------------------------------------|
A|----------------------------------------------------------------------|
F|----------------------------------------------------------------------|
C|-7/10-10~-------------------------5/7-7~---------------------7/3-3~---|
G|----------------------------------------------------------------------|
C|----------------------------------------------------------------------|

Gtr 1
D|---------------------------------------|
A|---------------------------------------|
F|---------------------------------------|
C|---------------------------------------|
G|---5-5----5-5----5-----5-5----5-5----5-|
C|-0------0------0-----0------0------0---|

Gtr 1
D|----------------------------------------------------------------------|
A|----------------------------------------------------------------------|
F|----------------------------------------------------------------------|
C|----------------------------------------------------------------------|
G|---8-12---8-12---10---7-10---7-10---8---5-8---5-8---7---3-7---7h8p7-5-|
C|-0------0------0----0------0------0---0-----0-----0---0-----0---------|
Gtr 2
D|----------------------------------------------------------------------|
A|----------------------------------------------------------------------|
F|----------------------------------------------------------------------|
C|-7/10-10~-------------------------5/7-7~---------------------7/12-12~-|
G|----------------------------------------------------------------------|
C|----------------------------------------------------------------------|
Related for Waterhaul tab