Song name
# A B C D E F G H I J K L M N O P Q R S T U V W X Y Z

36 Crazyfists - On Any Given Night tab

On Any Given Night
from: 36 Crazyfists
      [Rest Inside The Flames]

Written by: 36 Crazyfists

Tabbed by Tuukka Ojansivu, mail me at cs_lamu_pallo@phnet.fi
This is my interpretation of the song, it might have few errors on it, so let me know
if you catch one here or there.

Notation legend:
~ = vibrato
. , pm = palm mute (the little dots under the lines)
ph = pinch harmonic
b = bend
/ = slide
t = tap
p = pull off

LISTEN TO THE RECORD as tabs weren't blessed with rhytm marks
-------------------------------------------------------------

Tuning (from low); C,G,C,F,A,D

Ok so this tab goes to the people who love this song as much as me, and to all the great 
who want to play it! The stuff Holt (the 36cf guitarist)
does isn't too hard to play, but it sounds great as you know. Cheers!

{--------------------------O-O----------------------------------}
{--------------------------O-O----------------------------------}


intro: (twice)
|-----------------------------------------------------------------|
|-----------------------------------------------------------------|
|-----------------------------------------------------------------|
|-----------------------------------------------------------------|
|-4-4-4---------------------------------------------------2-2-6-6-|
|-------7-7-7-6-6-6-4-4-4-6-6-7-7-6-6-6-4-4-4-2-2-2-1-1-1---------|


verse:
|--------------------------------------------|
|--------------------------------------------|
|--------------------------------------------|
|-1--1-1--1--1-1--1--1-1--2--2-2--2-2--2-2---|
|-4--4-4--4--4-4--4--4-4--4--4-4--4-4--4-4---|
|--------------------------------------------|
     . .     . .     . .     . .    .


|--------------------------------------------|
|--------------------------------------------|
|--------------------------------------------|
|-6--6-6--6--6-6--7--7-7--6--6-6--4-4--6-6---|
|-0--0-0--0--0-0--0--0-0--0--0-0--0-0--0-0---|
|--------------------------------------------|
     . .     . .     . .     . .    .    .

|--------------------------------------------|
|--------------------------------------------|
|--------------------------------------------|
|-6--6-6--6--6-6--7--7-7--6--6-6--4-4--6-6---|
|-4--4-4--4--4-4--4--4-4--4--4-4--4-4--4-4---|
|-4--4-4--4--4-4--4--4-4--4--4-4--4-4--4-4---|
     . .     . .     . .     . .    .    .

|--------------------------------------------|
|--------------------------------------------|
|-------------------------1--1-1--1-1--1-1---|
|-6--6-6--6--6-6--6--6-6--4--4-4--4-4--4-4---|
|-2--2-2--2--2-2--2--2-2--2--2-2--2-2--2-2---|
|-2--2-2--2--2-2--2--2-2---------------------|
     . .     . .     . .     . .    .    .

|------------------------------------------------------------------------|
|------------------------------------------------------------------------|
|---------------4------------4---------------------6-----------6---------|
|--------------------------------------------6-----------6---------6-----|
|-4--4-4-6--4-4---4-4-6--4-4---4-6-4--0--0-0---0-0---0-0---0-0---0---0---|
|------------------------------------------------------------------------|
     . .    . .   . .    . .   .   .     . .   . .   . .   . .   .   .

|------------------------------------------------------------------|
|---------------5------------5-------------------------------------|
|------------------------------------------------------------------|
|-4--4-4-7--4-4---4-4-7--4-4---4-7-4--6--6-6--2--2-2--6--6-6--6--6-|
|-------------------------------------2--2-2--2--2-2--2--2-2--2--2-|
|-------------------------------------2--2-2--2--2-2--2--2-2-------|
     . .    . .   . .    . .   .   .     . .     . .     . .

|-------------------------------------------------------------------|
|-----------------9-9-9-9-9-9-9-9------------------7-7-7-7-7-7-7-7--|
|-6-6-6-6-6-6-6-6-6-6-6-6-6-6-6-6--4-4-4-4-4-4-4-4-4-4-4-4-4-4-4-4--|
|-7-7-7-7-7-7-7-7-7-7-7-7-7-7-7-7--6-6-6-6-6-6-6-6-6-6-6-6-6-6-6-6--|
|-------------------------------------------------------------------|
|-------------------------------------------------------------------|


|------------------------------------------------------|
|-----------------9-9-9-9-9-9-9-9-------------------7--|
|-6-6-6-6-6-6-6-6-6-6-6-6-6-6-6-6--4-4-4-4-4-4-4-4--4--|
|-7-7-7-7-7-7-7-7-7-7-7-7-7-7-7-7--6-6-6-6-6-6-6-6--6--|
|------------------------------------------------------|
|------------------------------------------------------|


CHORUS: these are the first three chords (strum these)
|-----| |-----| |-----|
|-----| |-----| |-----|
|--6--| |--4--| |--2--|
|--6--| |--4--| |--2--|
|--4--| |--2--| |--0--|
|-----| |-----| |-----|

repeat 3 times (mixed with the chords, played on the background)
|-------------------------------------------------------------------------------------------------|
|-------------------------------------------------------------------------------------------------|
|-11-11-11-11-11-11-11-11-9--9--9--9--9--9--9--9--8--8--8--8--8--8--8--8--9--9--9--9--9--9--9--9--|
|-------------------------------------------------------------------------------------------------|
|-9--9--9--9--9--9--9--9--7--7--7--7--7--7--7--7--6--6--6--6--6--6--6--6--7--7--7--7--7--7--7--7--|
|-------------------------------------------------------------------------------------------------|


|-------------------------------------------------------------------|
|-------------------------------------------------------------------|
|-------------------------------------------------------------------|
|-6-6-6-6-6-6-6-6-----------------6-6-6-6-6-6-6-6--2-2-2-2-1-1-1-1--|
|-6-6-6-6-6-6-6-6-7-7-7-6-6-6-6-6-6-6-6-6-6-6-6-6--2-2-2-2-1-1-1-1--|
|-6-6-6-6-6-6-6-6-----------------6-6-6-6-6-6-6-6--2-2-2-2-1-1-1-1--|

intro

verse

chorus


bridge:

(1st guitar playes only these two chords)
|---| |---|
|---| |---|
|---| |---|
|-2-| |-6-|
|-2-| |-6-|
|-2-| |-6-|

(2nd guitar plays this on the background)
|-------------------------------------|
|-------------------------------------|
|-------------------------------------|
|-9-9-9-9--9-9-8-8--8-4-4-4--4-4-4-4--|
|-7-7-7-7--7-7-7-7--7-7-7-7--7-7-7-7--|
|-------------------------------------|

Before the quiet part 2nd guitar ends like this:

|-----------------------|
|-----------------------|
|-----------------------|
|-9-9-9-9--9-9-9-9--8---|
|-7-7-7-7--7-7-7-7--7---|
|-----------------------|

|-------------------------------------------------------|
|-------------------------------------------------------|
|-----4-------------6------------9-------------1-----6--|
|---2----2---2----6---6---6----7---7---7-----2-----4----|
|-4--------4----0-------6----9-------9-----------2------|
|------------------------------------------2------------|

|--------------------------------------------------------|
|--------------------------------------------------------|
|-----4-------------6------------9-------------1---------|
|---2----2---2----6---6---6----7---7---7-----2-------6---|
|-4--------4----0-------6----9-------9-----------2---6---|
|------------------------------------------2---------6---|

|-------------------------------------------------------------------|
|-----------------9-9-9-9-9-9-9-9-----------------------------------|
|-6-6-6-6-6-6-6-6-6-6-6-6-6-6-6-6--4-4-4-4-4-4-4-4-4-4-4-4-4-4-4-4--|
|-7-7-7-7-7-7-7-7-7-7-7-7-7-7-7-7--6-6-6-6-6-6-6-6-6-6-6-6-6-6-6-6--|
|-------------------------------------------------------------------|
|-------------------------------------------------------------------|

|--------------------------------------|
|-----------------9-9-9-9-9-9-9-9------|
|-6-6-6-6-6-6-6-6-6-6-6-6-6-6-6-6--4---|
|-7-7-7-7-7-7-7-7-7-7-7-7-7-7-7-7--6---|
|--------------------------------------|
|--------------------------------------|

chorus

intro (in this case outro)

ends with:
|-----|
|-----|
|--6--|
|--2--|
|--4--|
|-----|
Tap to rate this tab
 
# A B C D E F G H I J K L M N O P Q R S T U V W X Y Z