Song name
# A B C D E F G H I J K L M N O P Q R S T U V W X Y Z

36 Crazyfists - City Below tab

Sup y'all, thought I'd try and tab this one out, sweetass band, mellow final track off 
Inside The Flames. This is my first tab so please excuse any mistakes.

helmsk8@yahoo.com

Tuning CGCFAD (drop D down a whole step) on acoustic.


Intro

D|-------------------------------------------------------------------------|
A|-------------------------------------------------------------------------|
F|--------------------------------------7-------6--------------------------|
C|12-----------11---------------x2----------------------7~------x2---------|
G|--9------------9------12~---------------5-------5------------------------|
C|----9------------9-----------------------5-------5-----------------------|

D|-------------------------------------------------------------------------|
A|-------------------------------------------------------------------------|
F|-------------------------------------------------------------------------|
C|55555--------------------------------------------------------------------|
G|55555--------------------------------------------------------------------|
C|55555--------------------------------------------------------------------|

Verse

'...Its a midnight swim...'

D|-------------------------------------------------------------------------|
A|-------------------------------------------------------------------------|
F|-------------------------------------------------------------------------|
C|----12----------------7--------------------------------------------------|
G|99999---99999-----55555---55555------------------------------------------|
C|99999---99999-----55555---55555------------------------------------------|

Follow the above for the verses

Prechorus

D|-------------------------------------------------------------------------|
A|-------------------------------------------------------------------------|
F|-------------------------------------------------------------------------|
C|999777---------------------------------------------------------x3--------|
G|xxxxxx-101010-999-101010-999---------------------------------------------|
C|999999-9-9-9--999-9-9-9--999---------------------------------------------|

Intro
Verse
Prechorus
Intro (Chorus but playing the intro x2 does it)

Bridge
'...Now to, get back to...'

D|-------------------------------------------------------------------------|
A|-------------------------------------------------------------------------|
F|-------------------------------------------------------------------------|
C|4444444444444444-00000000-22222222-----------------------------x3--------|
G|4444444444444444-00000000-22222222---------------------------------------|
C|4444444444444444-00000000-22222222---------------------------------------|

And for the last measure

D|-------------------------------------------------------------------------|
A|-------------------------------------------------------------------------|
F|-------------------------------------------------------------------------|
C|4444444444444444-00000000-2~---------------------------------------------|
G|4444444444444444-00000000-2~---------------------------------------------|
C|4444444444444444-00000000-2~---------------------------------------------|

Intro x 2 (plus some 2nd guitar stuff thats pretty much easy to improvise if u wanna)

And you're done. And Q's, hit meh. Sorry if its shite, it is my first tab afterall.
Peace,
Wangmaster.
Tap to rate this tab
# A B C D E F G H I J K L M N O P Q R S T U V W X Y Z