Guitaretab - guitar tabs
Song name
# A B C D E F G H I J K L M N O P Q R S T U V W X Y Z

36 Crazyfists - City Ignites tab

*36 CRAZYFISTS*
================
C I T Y  I G N I T E S  (ACOUSTIC)

t a b b e d   b y   U m e s h  B h a l s o d

CHORDS USED:  Am, Am/F, G


INTRO
======

       Am                                 Am
|----------------|---------------|-------------------|----------------|
|--1-----0-------|---------------|--1-----0----------|----------------|
|----2-----2---0-|---------------|----2-----2---0----|----------------|
|------2-----2---|---------------|------2-----2------|----------------|
|--0-----------0-|---------------|--0-----------0----|----------------|
|----------------|---------------|-------------------|----------------|

[ Tab from: http://www.guitaretab.com/numeric/36-crazyfists/79204.html ]
       Am/F                               Am/F
|----------------|---------------|-------------------|----------------|
|--1-----0-------|---------------|--1-----0----------|----------------|
|----2-----2---0-|---------------|----2-----2---0----|----------------|
|------2-----2---|---------------|------2-----2------|----------------|
|----------------|---------------|-------------------|----------------|
|--1-----------1-|---------------|--1-----------1----|----------------|





*repeat INTRO at necessary places throughout the song*


VERSE
=====

Am   G    F    G



BRIDGE
======

F    G    Am    G


CHORUS
======

Am   G    F    G


Enjoy!

Umesh 



Related for City Ignites tab
City Ignites chords by 36 Crazyfists