Song name
# A B C D E F G H I J K L M N O P Q R S T U V W X Y Z

38 Special - Trooper With An Attitude tab

E:|-----------------------|---------------------|
B:|-----------------------|---------------------|
G:|-----------------------|---------------------|
D:|-------2p0-------------|---------------------|
A:|-2p0-------------------|-2p0-----------------|
D:|-----------2p0-0-0-0-0-|-----3p0-2p0-0-0-0-0-|

E:|----------------------|---------------------|
B:|----------------------|---------------------|
G:|----------------------|---------------------|
D:|-2p0------------------|---------------------|
A:|----------------------|---------------------|
D:|-----3p0-2p0--0-0-0-0-|-3h5-5p3-3p0-0-0-0-0-|

E:|----------------------|---------------------|
B:|----------------------|---------------------|
G:|---------10-7-7-6-7---|-----10-7-7-6-7------|
D:|---------10-7-7-6-7---|-----10-7-7-6-7------|
A:|-2p0------------------|---------------------|
D:|-----3p0--------------|---------------------|

E:|----------------------|---------------------|
B:|----------------------|---------------------|
G:|---------10-7-7-6-7---|-----10-7-7-6-7------|
D:|---------10-7-7-6-7---|-----10-7-7-6-7------|
A:|----------------------|---------------------|
D:|-3h5-5p3--------------|---------------------|
Tap to rate this tab
 
# A B C D E F G H I J K L M N O P Q R S T U V W X Y Z