Song name
# A B C D E F G H I J K L M N O P Q R S T U V W X Y Z

38 Special - Hold On Loosly tab

-------------------------------------------------------------------------------
			     Hold on Loosly - 38 Special
-------------------------------------------------------------------------------
Tabbed by: tel105
I think this is an easier way to play if your hand will not streach far enough.

Tuning: Normal

e|---------------------------------------------------------------------------|
B|---------------------------------------------------------------------------|
G|---9------8------7------6------9------8------7------6----------------------|
D|---9------9------7------7------9------9------7------7----------------------|
A|---7------7------5------5------7------7------5------5----------------------|
E|---------------------------------------------------------------------------|

e|---------------------------------------------------------------------------|
B|---------------------------------------------------------------------------|
G|---5---------------7-------------------------------------------------------|
D|---5---------------7-------------------------------------------------------|
A|---3---------------5-------------------------------------------------------|
E|---------------------------------------------------------------------------|

e|---------------------------------------------------------------------------|
B|---------------------------------------------------------------------------|
G|---9------8------7------6------9------8------7------6----------------------|
D|---9------9------7------7------9------9------7------7----------------------|
A|---7------7------5------5------7------7------5------5----------------------|
E|---------------------------------------------------------------------------|

e|---------------------------------------------------------------------------|
B|---------------------------------------------------------------------------|
G|---5---------------7-------------------------------------------------------|
D|---5---------------7-------------------------------------------------------|
A|---3---------------5-------------------------------------------------------|
E|---------------------------------------------------------------------------|


| /  slide up
| \  slide down
| h  hammer-on
| p  pull-off
| ~  vibrato
| +  harmonic
| x  Mute note
===============================================================================
Tap to rate this tab
# A B C D E F G H I J K L M N O P Q R S T U V W X Y Z