Song name
# A B C D E F G H I J K L M N O P Q R S T U V W X Y Z

38th Parallel - Wither tab

Ok so this is my first tab so try not to be to tough on me lol

The strumming pattern for this song is pretty tricky
so make sure and listen to the song for timing.
Tuning is Drop Db

Intro

Eb |------------------------------------------------------------------|
Bb |------------------------------------------------------------------|
Gb |------------------------------------------------------------------| 
Db |-----------9-9--9-9-9-9--12-12-12--11-11--11-11-11-11-----7-7-7-7-|
Ab |-12-10-9---9-9--9-9-9-9--10-10-10--12-12--12-12-12-12-----7-7-7-7-|
Db |-----------7-7--7-7-7-7--10-10-10--9--9---9--9--9--9------5-5-5-5-|

Eb|----------------------------------------------|
Bb|----------------------------------------------| 
Gb|----------------------------------------------|
Db|-9-9--9-9-9-9--12-12-12--11-11--9--7----------|
Ab|-9-9--9-9-9-9--12-12-12--12-12--9--7--12-10-9-|
Db|-7-7--7-7-7-7--10-10-10--9--9---7--5----------|

Chorus

Eb|-----------------------------------------------|	R
Bb|-----------------------------------------------| E
Gb|-----------------------------------------------|	P
Db|-2--5--2-2--2--2-5--2-2--0-0-0-0--0-0-0-0------|	E
Ab|-2--5--2-2--2--2-5--2-2--0-0-0-0--0-0-0-0--5-5-|	A
Db|-2--5--2-2--2--2-5--2-2--0-0-0-0--0-0-0-0------|	T

Verse

Eb|---------------------|
Bb|---------------------| 
Gb|-----=---------------|		Play
Db|---------------------|		4
Ab|-9-10-12-10-9-7-5-7--|	Times
Db|---------------------|


Pre Chorus

Eb |------------------------------------------------------------------|
Bb |------------------------------------------------------------------|
Gb |------------------------------------------------------------------| 
Db |-----------9-9--9-9-9-9--12-12-12--11-11--11-11-11-11-----7-7-7-7-|
Ab |-12-10-9---9-9--9-9-9-9--10-10-10--12-12--12-12-12-12-----7-7-7-7-|
Db |-----------7-7--7-7-7-7--10-10-10--9--9---9--9--9--9------5-5-5-5-|

Eb|----------------------------------------------|
Bb|----------------------------------------------| 
Gb|----------------------------------------------|
Db|-9-9--9-9-9-9--12-12-12--11-11--9--7----------|
Ab|-9-9--9-9-9-9--12-12-12--12-12--9--7--12-10-9-|
Db|-7-7--7-7-7-7--10-10-10--9--9---7--5----------|


Chorus

Eb|-----------------------------------------------|	R
Bb|-----------------------------------------------| E
Gb|-----------------------------------------------|	P
Db|-2--5--2-2--2--2-5--2-2--0-0-0-0--0-0-0-0------|	E
Ab|-2--5--2-2--2--2-5--2-2--0-0-0-0--0-0-0-0--5-5-|	A
Db|-2--5--2-2--2--2-5--2-2--0-0-0-0--0-0-0-0------|	T

2nd Chorus

Eb|-----------------------------------------------|	R
Bb|-----------------------------------------------| E
Gb|-----------------------------------------------|	P
Db|-----2-2--2--2-5--2-2--0-0-0-0--0-0-0-0--------|	E
Ab|-----2-2--2--2-5--2-2--0-0-0-0--0-0-0-0--5-5---|	A
Db|-----2-2--2--2-5--2-2--0-0-0-0--0-0-0-0--------|	T

Verse

Eb|---------------------|
Bb|---------------------| 
Gb|-----=---------------|		Play
Db|---------------------|		4
Ab|-9-10-12-10-9-7-5-7--|	Times
Db|---------------------|

Pre Chorus

Eb |------------------------------------------------------------------|
Bb |------------------------------------------------------------------|
Gb |------------------------------------------------------------------| 
Db |-----------9-9--9-9-9-9--12-12-12--11-11--11-11-11-11-----7-7-7-7-|
Ab |-12-10-9---9-9--9-9-9-9--10-10-10--12-12--12-12-12-12-----7-7-7-7-|
Db |-----------7-7--7-7-7-7--10-10-10--9--9---9--9--9--9------5-5-5-5-|

Eb|----------------------------------------------|
Bb|----------------------------------------------| 
Gb|----------------------------------------------| Play
Db|-9-9--9-9-9-9--12-12-12--11-11--9--7----------| 4
Ab|-9-9--9-9-9-9--12-12-12--12-12--9--7--12-10-9-| Times
Db|-7-7--7-7-7-7--10-10-10--9--9---7--5----------|

Chorus

Eb|-----------------------------------------------|	R
Bb|-----------------------------------------------| E
Gb|-----------------------------------------------|	P
Db|-2--5--2-2--2--2-5--2-2--0-0-0-0--0-0-0-0------|	E
Ab|-2--5--2-2--2--2-5--2-2--0-0-0-0--0-0-0-0--5-5-|	A
Db|-2--5--2-2--2--2-5--2-2--0-0-0-0--0-0-0-0------|	T

2nd Chorus

Eb|-----------------------------------------------|	R
Bb|-----------------------------------------------| E
Gb|-----------------------------------------------|	P
Db|-----2-2--2--2-5--2-2--0-0-0-0--0-0-0-0--------|	E
Ab|-----2-2--2--2-5--2-2--0-0-0-0--0-0-0-0--5-5---|	A
Db|-----2-2--2--2-5--2-2--0-0-0-0--0-0-0-0--------|	T

Bridge

Eb|---------------------------------------------|
Bb|---------------------------------------------| 
Gb|-----7---7---7--------3-----3----3-----------|		Play
Db|---7---7------------3----3-------------------|		4
Ab|-5---5---5------1-----1-------1--------------| Times
Db|---------------------------------------------|

Eb|-----------------------------|
Bb|-----------------------------| 
Gb|-----------------------------|		
Db|-----------------------------|		
Ab|-/////////////////////-------|          
Db|-/////////PICK SLIDE---------|

Chorus

Eb|-----------------------------------------------|	
Bb|-----------------------------------------------| 
Gb|-----------------------------------------------|	Play
Db|-2--5--2-2--2--2-5--2-2--0-0-0-0--0-0-0-0------|	4
Ab|-2--5--2-2--2--2-5--2-2--0-0-0-0--0-0-0-0--5-5-|	Times
Db|-2--5--2-2--2--2-5--2-2--0-0-0-0--0-0-0-0------|	

End On

Eb|-------|
Bb|-------| 
Gb|-------|		
Db|-2-2---|		
Ab|-2-2---|          
Db|-2-2---|

Tap to rate this tab
 
# A B C D E F G H I J K L M N O P Q R S T U V W X Y Z