Guitaretab - guitar tabs
Song name
# A B C D E F G H I J K L M N O P Q R S T U V W X Y Z

3js - Wiegelied tab

       C                   G
E||----------0--------------------------|
B||----1--3------3---1---0---1---3------|
G||-------------------------------------|
D||-------------------------------------|
A||-------------------------------------|
E||-------------------------------------|
    Ik betover je voor het slapen gaan
   Am                       Em
E||-------------------------------------|
B||-------0-- 1---0-----------------0---|
G||---2------------------2---0---2------|
D||-------------------------------------|
A||-------------------------------------|
E||-------------------------------------|
   spreek een goed woord en raak je aan
    F            C            G
E||--------------------------------------|
B||--------------------------------------|
G||----0-2-0-----------------------------|
D||-3--------3---2--3---0------2--0------|
A||--------------------------------------|
E||--------------------------------------|
    Engelenkoren zingen straks je naam
     C                  G
E||----------0--------------------------|
B||----1--3------3---1---0---1---3------|
G||-------------------------------------|
D||-------------------------------------|
A||-------------------------------------|
E||-------------------------------------|
     nu ben je nog zo'n kleine  vent
     Am                   Em
E||-------------------------------------|
B||-------0-- 1---0-------------0-------|
G||---2----------------2---0--2---------|
D||-------------------------------------|
A||-------------------------------------|
E||-------------------------------------|
     en  zolang  jij   de mijne bent
   F                G                  C
E||-------------------------------------------|
B||---------------------------------3---1-----|
G||----0---2---0-----------------0------------|
D||-3----------------3--2--3------------------|
A||-------------------------------------------|
E||-------------------------------------------|
   ben ik voor jou  en pas mijn  leven aan


Refrain:
           F                C
Maak ik je blij, wanneer je huilt
           F                C          G
Voel ik me rijk, wanneer je lacht naar mij
             F              G
breek ik het ijzer met mijn hand
Em                       Am        F
Voel ik me wijzer dan de krant van morgen
            F              C
Zal voor je zorgen, kleine man
        F       E   Am  B   C      F  G
Lag het aan mij dan zou jij eeuwig leven


Verse:

Ik betover je voor het slapen gaan
Spreek een goed woord en raak je aan
Engelenkoren zingen straks je naam
Nu ben je nog zon kleine vent
En zolang jij de mijne bent
Ben ik voor jou en pas mijn leven aan

Refrain:
           F                C
Maak ik je blij, wanneer je huilt
           F                C          G
Voel ik me rijk, wanneer je lacht naar mij
             F              G
breek ik het ijzer met mijn hand
Em                       Am        F
Voel ik me wijzer dan de krant van morgen
            F              C
Zal voor je zorgen, kleine man
        F       E   Am  B   C      F  G
Lag het aan mij dan zou jij eeuwig leven

Official website: http://www.3js.nl
[ Tab from: http://www.guitaretab.com/numeric/3js/110529.html ]
Related for Wiegelied tab