Song name
# A B C D E F G H I J K L M N O P Q R S T U V W X Y Z

3lw - No More tab

Help us improve GuitareTab! Take a short survey!
3LW-No more

this is a catchy little R&B piece by 3LW i thought it was that catchy i tabbed
it

have fun ppl:)

^=STRUM UPWARDS

ON THE FIFTH FRET KEEP IT BARRED ALL THE WAY THROUGH UNTILL SHOWN DIFFRENTLY.
                             ^
E-----5--------0--------0----0--------------------------------------------------|
B--------------6--------6----6--------------------------------------------------|
G-----5--------0--------0----0--------------------------------------------------|
D--------------7--------7----7--------------------------------------------------|
A-----5---5--------5------------------------------------------------------------|
E-----5-------------------------------------------------------------------------|
                             ^
E-----5--------0--------0----0------------------------------------------------------|
B-----5--------0--------0----0------------------------------------------------------|
G-----5--------0--------0----0------------------------------------------------------|
D-----5--------0--------0----0------------------------------------------------------|
A--------------7--------7----7------------------------------------------------------|
E-----5---5---------5---------------------------------------------------------------|


OK NOW SLIDE THE BAR DOWN TO THE THIRD FRET
                             ^
E-----3--------0--------0----0----------------------------------------------------|
B-----3--------0--------0----0----------------------------------------------------|
G-----3--------0--------0----0----------------------------------------------------|
D-----3--------0--------0----0----------------------------------------------------|
A--------------5--------5----5----------------------------------------------------|
E-----3---3---------3-------------------------------------------------------------|


E-----5--------0--------0----0------------------------------------------------------|
B-----5--------0--------0----0------------------------------------------------------|
G-----5--------0--------0----0------------------------------------------------------|
D-----5--------0--------0----0------------------------------------------------------|
A--------------7--------7----7------------------------------------------------------|
E-----5---5---------5---------------------------------------------------------------|


LISTEN TO THE TRACK TO GET THE RYTHEM

ENJOY:)

TONY_X
Related for No More tab