Song name
# A B C D E F G H I J K L M N O P Q R S T U V W X Y Z

3oh3 - Dont Dance tab

Standard
Intro
---------------------------------------------------------------------------------------------|
---------------------------------------------------------------------------------------------|
-----------------x4-3-3-5-5------------------------------------------------------------------|
--778877--33--55----3-3-5-5------------------------------------------------------------------|
55------11--33------1-1-3-3------------------------------------------------------------------|
---------------------------------------------------------------------------------------------|

Verse repeat as needed
---------------------------------------------------------------------------------------------|
---------------------------------------------------------------------------------------------|
--------------------3-3-5-5------------------------------------------------------------------|
--778877--33--55----3-3-5-5------------------------------------------------------------------|
55------11--33------1-1-3-3------------------------------------------------------------------|
---------------------------------------------------------------------------------------------|

Bridge "shake it shake it..."

---------------------------------------------------------------------------------------------|
----------------------------------Before Chorus----------------------------------------------|
---------------------------------191919191919------------------------------------------------|
-------------repeat as needed----00000000000-------------------------------------------------|
55-11-33-55----------------------------------------------------------------------------------|
---------------------------------------------------------------------------------------------|

Chorus

---------------------------------------------------------------------------------------------|
-X8----X8--X8--X8----------------------------------------------------------------------------|
7---10---3----5------------------------------------------------------------------------------|
7---10---3----3------------------------------------------------------------------------------|
5---8----1----3------------------------------------------------------------------------------|
---------------------------------------------------------------------------------------------|

For snyth notes before the chorus slide up to 19, 15, 17 on the g string repat as needed

Whiskey on the rocks, your sister on my mouth, 3OH!3
-17
Tap to rate this tab
# A B C D E F G H I J K L M N O P Q R S T U V W X Y Z