Song name
# A B C D E F G H I J K L M N O P Q R S T U V W X Y Z

3oh3 - Colorado Sunrise tab

Help us improve GuitareTab! Take a short survey!
this is just a basic tab. apart from the quick intro  part, (which isn't actually played 
a real guitar in the first place), there's absolutely NO guitar in this song... but i 
this song and i wanted something to sing along tooo :3 so here ya go.

ONE TWO THREE FOUR!

e|----------------------------------------------------------------------------|
B|----------------------------------------------------------------------------|
G|----------------------------------------------------------------------------|
D|----8--6--------------------4-----------------------------------------------|
A|-6--------------6--6-----------6--------------------------------------------|
E|-------------4-----------7--------------------------------------------------|

and AS IF you'd wanna play this onna geetar.... :P

e|----------------------------------------------------------------------------|
B|----------------------------------------------------------------------------|
G|----------------------------------------------------------------------------|
D|-1/13--13--13--13--10--13--10--9--8--9--9--9--9--8--9--8--4--6--4--6--1-----|
A|----------------------------------------------------------------------------|
E|----------------------------------------------------------------------------|

e|----------------------------------------------------------------------------|
B|----------------------------------------------------------------------------|
G|------------------------------------------------------------8---------------|
D|-4--4--6--8--13--10--9--8--9--9--9--9--8--9--8--4--6--4--6--8---------------|
A|------------------------------------------------------------6---------------|
E|----------------------------------------------------------------------------|

there'ya are! [:! happy playing! saydem up!
Related for Colorado Sunrise tab