Guitaretab - guitar tabs
Song name
# A B C D E F G H I J K L M N O P Q R S T U V W X Y Z

3oh3 - Tapp tab

Alright, so I've been looking for 3oh!3 tabs for a while, and haven't really come up 
any.
I'm not a massive fan, but they're fun, so I thought playing along would make them better.

Tuning: Drop (C C G C F A D)

It's simple.
Extremely.

D----------------------------------------------------------------------------|
A----------------------------------------------------------------------------|
F----------------------------------------------------------------------------|
C----------------------------------------------------------------------------|
G----------------------------------------------------------------------------|
C-/7----7-7-77-77--7-7-77-77--7-7-77-77--7-7-77-79---------------------------|
[ Tab from: http://www.guitaretab.com/numeric/3oh3/182985.html ]
D----------------------------------------------------------------------------|
A----------------------------------------------------------------------------|
F----------------------------------------------------------------------------|
C----------------------------------------------------------------------------|
G----------------------------------------------------------------------------|
C-7-7-77-77--7-7-77-77--7-7-77-77--7-7-77------------------------------------|

(Play this part twice)
D----------------------------------------------------------------------------|
A----------------------------------------------------------------------------|
F----------------------------------------------------------------------------|
C----------------------------------------------------------------------------|
G------------5-5-55-55-------------------------------------------------------|
C--7-7-77-77------------3-3-33-33--5-5-55-55---------------------------------|


Ridiculously simple.
Thanks :)

-Kim
Related for Tapp tab
Tapp chords by 3oh3