Song name
# A B C D E F G H I J K L M N O P Q R S T U V W X Y Z

3oh3 - Dont Trust Me tab

ok, ok. I know there is hardly ANY guitar for this song. So i just played along with 
dorky little thing and hell, it sounds okay i guess. or it might sound really bad.....

Don't Trust Me
3OH!3
std. tuning

verse
1---------------------------------------------------------------------|
2---------------------------------------------------------------------|
3---------------------------------------------------------------------|
4--------------5--5-5-5--5-------------7--7-7-7--7--------------------|
5--1--1-1-1--1-6--6-6-6--6-5--5-5-5--5-8--8-8-8--8--------------------|
6--3--3-3-3--3-------------6--6-6-6--6--------------------------------|
   .  . . .  . .  . . .  . .  . . .  . .  . . .  .
chorus
1-----------------------------------------------------------------------|
2-----------------------------------------------------------------------|
3-----------------------------------------------------------------------|
4-------------------5-5-5-5-5-5-5-5-------------------7-7-7-7-7-7-7-7---|
5--1-1-1-1-1-1-1-1--6-6-6-6-6-6-6-6--5-5-5-5-5-5-5-5--8-8-8-8-8-8-8-8---|
6--3-3-3-3-3-3-3-3-------------------6-6-6-6-6-6-6-6--------------------|

bridge (do the Hellen Keller)
1---------------------------------------|
2---------------------------------------|
3---------------------------------------|
4---------------------------------------|
5--1--1-1--1-1--1-1--1-1--1-1--1-1--1-1-|
6--3--3-3--3-3--3-3--3-3--3-3--3-3--3-3-|
      .    . .  .      .  . .  .    . .

.=Palm mute

hope it works!!!! :P
Tap to rate this tab
# A B C D E F G H I J K L M N O P Q R S T U V W X Y Z