Song name
# A B C D E F G H I J K L M N O P Q R S T U V W X Y Z

3oh3 - Dont Trust Me tab

-------------------------------------------------------------------------------
			    Don't Trust Me- 3oh!3
-------------------------------------------------------------------------------

Tabbed by:
Email:

Tuning:
            (x2)     (x2)      (x2)      (x2)
d|--------8-7-------8-7------8-7-------8-7-----------------------------------|
a|------5---------5--------5---------5---------------------------------------|
f|----5---------5---------5--------5-----------------------------------------|
c|--7------------------------------------------------------------------------|
g|------------8---------5--------8-------------------------------------------|
c|---------------------------------------------------------------------------|

Guitar 2/bass 

d|---------------------------------------------------------------------------|
a|---------------------------------------------------------------------------|
f|---------------------------------------------------------------------------|
c|---------------------------------------------------------------------------|
g|-0-0-0-0-0-0-0-0-0-0-0-0-0-0-0-0-------------------------------------------|
c|---------------------------------3-3-3-3-3-3-3-3-3-3-3-3-3-3-3-3-----------|

d|---------------------------------------------------------------------------|
a|---------------------------------------------------------------------------|
f|---------------------------------------------------------------------------|
c|---------------------------------------------------------------------------|
g|---------------------------------------------------------------------------|
c|--0-0-0-0-0-0-0-0-0-0-0-0-0-0-0-0-3-3-3-3-3-3-3-3----3---------------------|

chorus
    (x8)      (x8)    (x8)       (x8)                               repeat x4     
e|---------------------------------------------------------------------------|
B|--------------------------------------------------------------------------O|
G|---------------------------------------------------------------------------|
D|--7---------3--------10---------5------------------------------------------|
A|--7---------3--------10---------5-----------------------------------------O|
E|--7---------3--------10---------5------------------------------------------|


 pre-break down "shus girl"part 
    (x11)
e|-------------|
B|-------------|
G|-------------|
D|---7---------|
A|---7---------|
E|---7---------|

The break down before chorus is the sme notes as the chorus. 

Also the final break down before ending also same chords as the chorus.



Im sure u guys can figure out the order 

If not measage me k 


************************************

| /   slide up
| \   slide down
| h   hammer-on
| p   pull-off
| ~   vibrato
| +   harmonic
| x   Mute note
| b   Bend
| pb  Pre-bend
| br  Bend release
| pbr Pre-bend release
| brb Bend release bend

************************************
Tap to rate this tab
# A B C D E F G H I J K L M N O P Q R S T U V W X Y Z