Song name
# A B C D E F G H I J K L M N O P Q R S T U V W X Y Z

3rd Alley - Disconnected tab

e|---2-2-2-1-2-----------|
B|--3-3-3----------------|
G|-----------------------|
D|-----------------------|
A|-----------------------|
E|-----------------------|

e|-----------------------|
B|--2---------2----------|
G|------1--2-----2-------|
D|-4--4------------------|
A|-----------------------|
E|-----------------------|

And that's it!

accords to the tab:

D-Dur   4   and A-Dur
        4
        2
www.youtube.com/user/3rd_alley

Have Fun!!!
Tap to rate this tab
 
# A B C D E F G H I J K L M N O P Q R S T U V W X Y Z