Song name
# A B C D E F G H I J K L M N O P Q R S T U V W X Y Z

3rd Alley - Hibernation tab

           INTRO / VERSE
e|---------------------------------------|
B|---------------------------------------|
G|---------------------------------------|      4 TIMES
D|--7-7------5-5------3-3------3-3-------|       
A|--7-7------5-5------3-3------3-3-------|        
E|5-5-5---3--3-3---1--1-1---1--1-1-------|

               BRIDGE
e|---------------------------------------------------------|
B|--------5--------5---------------------------------------|
G|--5--7-----5--7-------7->> 5-----------------------------|
D|------------------------------7--------------------------|
A|---------------------------------------------------------|
E|---------------------------------------------------------|


e|-------------------------------------5---------8--5------------|
B|----------------5---------5---8---6-----8--5---------8--6--5---7-7-bending
G|--5--7---5--7--------5---7-------------------------------------|
D|---------------------------------------------------------------|
A|---------------------------------------------------------------|
E|---------------------------------------------------------------|


e|----------------------------------------------------------------------|
B|--7-->> 5----7-->> 5----7-->> 5---------------------------------------|
G|-----------------------------------7-->> 5---7------------------------|
D|----------------------------------------------------------------------|
A|----------------------------------------------------------------------|
E|----------------------------------------------------------------------|



                   REFRAING

e|--------------------------------------------------------------|
B|--------------------------------------------------------------|
G|--2--2-2-----7--7-7-----5--5-5--------------------------------| 2 TIMES
D|--2--2-2-----7--7-7-----5--5-5---2-2-2-2-2--------------------|
A|--0--0-0-----5--5-5-----3--3-3---2-2-2-2-2--------------------|
E|---------------------------------0-0-0-0-0--------------------|
Tap to rate this tab
# A B C D E F G H I J K L M N O P Q R S T U V W X Y Z