Guitaretab - guitar tabs
Song name
# A B C D E F G H I J K L M N O P Q R S T U V W X Y Z

4 Non Blondes - Whats Going On tab

Artist: 4 non blondes
Song: Whats going on

 Intro
  E S S E S S E S E S S S    E S S E S S S S S E S S S
|-0-0-0-0-0-0-0-0-0-0-0-0--|-2-2-2-2-2-2-2-2-2-2-0-0-0--|
|-2-2-2-2-2-2-2-2-2-2-0-0--|-3-3-3-3-3-3-3-3-3-3-3-0-0--|
|-2-2-2-2-2-2-2-2-2-2-2-2--|-4-4-4-4-4-4-4-4-4-4-4------|
|-2-2-2-2-2-2-2-2-2-2-2-2--|-4-4-4-4-4-4-4-4-4-4-4------|
|-0-0-0-0-0-0-0-0-0-0-0-0--|-2-2-2-2-2-2-2-2-2-2-2------|
|--------------------------|----------------------------|


  E S S E S S S S S E S S S    E S S E S S S S S E S S S
|-2-2-2-2-2-2-2-2-2-2-0-0-0--|-0-0-0-0-0-0-0-0-0-0-0-0-0----|
|-3-3-3-3-3-3-3-3-3-3-3-0-0--|-2-2-2-2-2-2-2-2-2-2-2-0-0----|
|-2-2-2-2-2-2-2-2-2-2-2------|-2-2-2-2-2-2-2-2-2-2-2-2-2----|
|-0-0-0-0-0-0-0-0-0-0-0------|-2-2-2-2-2-2-2-2-2-2-2-2-2----|
|----------------------------|-0-0-0-0-0-0-0-0-0-0-0-0-0----|
|----------------------------|------------------------------|


  E S S E S S E S E S S S    E S S E S S S S S E S S S
|-0-0-0-0-0-0-0-0-0-0-0-0--|-2-2-2-2-2-2-2-2-2-2-0-0-0---|
|-2-2-2-2-2-2-2-2-2-2-0-0--|-3-3-3-3-3-3-3-3-3-3-3-0-0---|
|-2-2-2-2-2-2-2-2-2-2-2-2--|-4-4-4-4-4-4-4-4-4-4-4-------|
|-2-2-2-2-2-2-2-2-2-2-2-2--|-4-4-4-4-4-4-4-4-4-4-4-------|
|-0-0-0-0-0-0-0-0-0-0-0-0--|-2-2-2-2-2-2-2-2-2-2-2-------|
|--------------------------|-----------------------------|


  E S S E S S S S S S S S S S   E S S E S S S S S E S S S
|-2-2-2-2-2-2-2-2-2-2-2-0-0-0-|-0-0-0-0-0-0-0-0-0-0-0-0-0----|
|-3-3-3-3-3-3-3-3-3-3-3-3-0-0-|-2-2-2-2-2-2-2-2-2-2-2-0-0----|
|-2-2-2-2-2-2-2-2-2-2-2-2-----|-2-2-2-2-2-2-2-2-2-2-2-2-2----|
|-0-0-0-0-0-0-0-0-0-0-0-0-----|-2-2-2-2-2-2-2-2-2-2-2-2-2----|
|-----------------------------|-0-0-0-0-0-0-0-0-0-0-0-0-0----|
|-----------------------------|------------------------------|


 Verse
  E S S E S S E S E S S S    E S S E S S S S S E S S S
|-0-0-0-0-0-0-0-0-0-0-0-0--|-2-2-2-2-2-2-2-2-2-2-0-0-0---|
|-2-2-2-2-2-2-2-2-2-2-0-0--|-3-3-3-3-3-3-3-3-3-3-3-0-0---|
|-2-2-2-2-2-2-2-2-2-2-2-2--|-4-4-4-4-4-4-4-4-4-4-4-------|
|-2-2-2-2-2-2-2-2-2-2-2-2--|-4-4-4-4-4-4-4-4-4-4-4-------|
|-0-0-0-0-0-0-0-0-0-0-0-0--|-2-2-2-2-2-2-2-2-2-2-2-------|
|--------------------------|-----------------------------|


  E S S E S S S S S S S S S S   E S S E S S S S S E S S S
|-2-2-2-2-2-2-2-2-2-2-2-0-0-0-|-0-0-0-0-0-0-0-0-0-0-0-0-0----|
|-3-3-3-3-3-3-3-3-3-3-3-3-0-0-|-2-2-2-2-2-2-2-2-2-2-2-0-0----|
|-2-2-2-2-2-2-2-2-2-2-2-2-----|-2-2-2-2-2-2-2-2-2-2-2-2-2----|
|-0-0-0-0-0-0-0-0-0-0-0-0-----|-2-2-2-2-2-2-2-2-2-2-2-2-2----|
|-----------------------------|-0-0-0-0-0-0-0-0-0-0-0-0-0----|
|-----------------------------|------------------------------|


  E S S E S S E S E S S S    E S S E S S S S S E S S S
|-0-0-0-0-0-0-0-0-0-0-0-0--|-2-2-2-2-2-2-2-2-2-2-0-0-0---|
|-2-2-2-2-2-2-2-2-2-2-0-0--|-3-3-3-3-3-3-3-3-3-3-3-0-0---|
|-2-2-2-2-2-2-2-2-2-2-2-2--|-4-4-4-4-4-4-4-4-4-4-4-------|
|-2-2-2-2-2-2-2-2-2-2-2-2--|-4-4-4-4-4-4-4-4-4-4-4-------|
|-0-0-0-0-0-0-0-0-0-0-0-0--|-2-2-2-2-2-2-2-2-2-2-2-------|
|--------------------------|-----------------------------|


  E S S E S S S S S S S S S S   E S S E S S S S S E S S S
|-2-2-2-2-2-2-2-2-2-2-2-0-0-0-|-0-0-0-0-0-0-0-0-0-0-0-0-0----|
|-3-3-3-3-3-3-3-3-3-3-3-3-0-0-|-2-2-2-2-2-2-2-2-2-2-2-0-0----|
|-2-2-2-2-2-2-2-2-2-2-2-2-----|-2-2-2-2-2-2-2-2-2-2-2-2-2----|
|-0-0-0-0-0-0-0-0-0-0-0-0-----|-2-2-2-2-2-2-2-2-2-2-2-2-2----|
|-----------------------------|-0-0-0-0-0-0-0-0-0-0-0-0-0----|
|-----------------------------|------------------------------|


 Pre Chorus
  E S S E S S E S E S S S    E S S E S S S S S E S S S
|-0-0-0-0-0-0-0-0-0-0-0-0--|-2-2-2-2-2-2-2-2-2-2-0-0-0---|
|-2-2-2-2-2-2-2-2-2-2-0-0--|-3-3-3-3-3-3-3-3-3-3-3-0-0---|
|-2-2-2-2-2-2-2-2-2-2-2-2--|-4-4-4-4-4-4-4-4-4-4-4-------|
|-2-2-2-2-2-2-2-2-2-2-2-2--|-4-4-4-4-4-4-4-4-4-4-4-------|
|-0-0-0-0-0-0-0-0-0-0-0-0--|-2-2-2-2-2-2-2-2-2-2-2-------|
|--------------------------|-----------------------------|


  E S S E S S S S S S S S S S   E S S E S S S S S E S S S
|-2-2-2-2-2-2-2-2-2-2-2-0-0-0-|-0-0-0-0-0-0-0-0-0-0-0-0-0----|
|-3-3-3-3-3-3-3-3-3-3-3-3-0-0-|-2-2-2-2-2-2-2-2-2-2-2-0-0----|
|-2-2-2-2-2-2-2-2-2-2-2-2-----|-2-2-2-2-2-2-2-2-2-2-2-2-2----|
|-0-0-0-0-0-0-0-0-0-0-0-0-----|-2-2-2-2-2-2-2-2-2-2-2-2-2----|
|-----------------------------|-0-0-0-0-0-0-0-0-0-0-0-0-0----|
|-----------------------------|------------------------------|


  
  E S S E S S E S E S S S    E S S E S S S S S E S S S
|-0-0-0-0-0-0-0-0-0-0-0-0--|-2-2-2-2-2-2-2-2-2-2-0-0-0---|
|-2-2-2-2-2-2-2-2-2-2-0-0--|-3-3-3-3-3-3-3-3-3-3-3-0-0---|
|-2-2-2-2-2-2-2-2-2-2-2-2--|-4-4-4-4-4-4-4-4-4-4-4-------|
|-2-2-2-2-2-2-2-2-2-2-2-2--|-4-4-4-4-4-4-4-4-4-4-4-------|
|-0-0-0-0-0-0-0-0-0-0-0-0--|-2-2-2-2-2-2-2-2-2-2-2-------|
|--------------------------|-----------------------------|


  E S S E S S S S S S S S S S   E S S E S S S S S E S S S
|-2-2-2-2-2-2-2-2-2-2-2-0-0-0-|-0-0-0-0-0-0-0-0-0-0-0-0-0----|
|-3-3-3-3-3-3-3-3-3-3-3-3-0-0-|-2-2-2-2-2-2-2-2-2-2-2-0-0----|
|-2-2-2-2-2-2-2-2-2-2-2-2-----|-2-2-2-2-2-2-2-2-2-2-2-2-2----|
|-0-0-0-0-0-0-0-0-0-0-0-0-----|-2-2-2-2-2-2-2-2-2-2-2-2-2----|
|-----------------------------|-0-0-0-0-0-0-0-0-0-0-0-0-0----|
|-----------------------------|------------------------------|


 Chorus
   E S S E S S E S E S S S    E S S E S S S S S E S S S
|-0-0-0-0-0-0-0-0-0-0-0-0--|-2-2-2-2-2-2-2-2-2-2-0-0-0---|
|-2-2-2-2-2-2-2-2-2-2-0-0--|-3-3-3-3-3-3-3-3-3-3-3-0-0---|
|-2-2-2-2-2-2-2-2-2-2-2-2--|-4-4-4-4-4-4-4-4-4-4-4-------|
|-2-2-2-2-2-2-2-2-2-2-2-2--|-4-4-4-4-4-4-4-4-4-4-4-------|
|-0-0-0-0-0-0-0-0-0-0-0-0--|-2-2-2-2-2-2-2-2-2-2-2-------|
|--------------------------|-----------------------------|


  E S S E S S S S S S S S S S   E S S E S S S S S E S S S
|-2-2-2-2-2-2-2-2-2-2-2-0-0-0-|-0-0-0-0-0-0-0-0-0-0-0-0-0----|
|-3-3-3-3-3-3-3-3-3-3-3-3-0-0-|-2-2-2-2-2-2-2-2-2-2-2-0-0----|
|-2-2-2-2-2-2-2-2-2-2-2-2-----|-2-2-2-2-2-2-2-2-2-2-2-2-2----|
|-0-0-0-0-0-0-0-0-0-0-0-0-----|-2-2-2-2-2-2-2-2-2-2-2-2-2----|
|-----------------------------|-0-0-0-0-0-0-0-0-0-0-0-0-0----|
|-----------------------------|------------------------------|


  E S S E S S E S E S S S    E S S E S S S S S E S S S
|-0-0-0-0-0-0-0-0-0-0-0-0--|-2-2-2-2-2-2-2-2-2-2-0-0-0---|
|-2-2-2-2-2-2-2-2-2-2-0-0--|-3-3-3-3-3-3-3-3-3-3-3-0-0---|
|-2-2-2-2-2-2-2-2-2-2-2-2--|-4-4-4-4-4-4-4-4-4-4-4-------|
|-2-2-2-2-2-2-2-2-2-2-2-2--|-4-4-4-4-4-4-4-4-4-4-4-------|
|-0-0-0-0-0-0-0-0-0-0-0-0--|-2-2-2-2-2-2-2-2-2-2-2-------|
|--------------------------|-----------------------------|


  E S S E S S S S S S S S S S   E S S E S S S S S E S S S
|-2-2-2-2-2-2-2-2-2-2-2-0-0-0-|-0-0-0-0-0-0-0-0-0-0-0-0-0----|
|-3-3-3-3-3-3-3-3-3-3-3-3-0-0-|-2-2-2-2-2-2-2-2-2-2-2-0-0----|
|-2-2-2-2-2-2-2-2-2-2-2-2-----|-2-2-2-2-2-2-2-2-2-2-2-2-2----|
|-0-0-0-0-0-0-0-0-0-0-0-0-----|-2-2-2-2-2-2-2-2-2-2-2-2-2----|
|-----------------------------|-0-0-0-0-0-0-0-0-0-0-0-0-0----|
|-----------------------------|------------------------------|


  E S S E S S E S E S S S    E S S E S S S S S E S S S
|-0-0-0-0-0-0-0-0-0-0-0-0--|-2-2-2-2-2-2-2-2-2-2-0-0-0---|
|-2-2-2-2-2-2-2-2-2-2-0-0--|-3-3-3-3-3-3-3-3-3-3-3-0-0---|
|-2-2-2-2-2-2-2-2-2-2-2-2--|-4-4-4-4-4-4-4-4-4-4-4-------|
|-2-2-2-2-2-2-2-2-2-2-2-2--|-4-4-4-4-4-4-4-4-4-4-4-------|
|-0-0-0-0-0-0-0-0-0-0-0-0--|-2-2-2-2-2-2-2-2-2-2-2-------|
|--------------------------|-----------------------------|


  E S S E S S S S S S S S S S   E S S E S S S S S E S S S
|-2-2-2-2-2-2-2-2-2-2-2-0-0-0-|-0-0-0-0-0-0-0-0-0-0-0-0-0----|
|-3-3-3-3-3-3-3-3-3-3-3-3-0-0-|-2-2-2-2-2-2-2-2-2-2-2-0-0----|
|-2-2-2-2-2-2-2-2-2-2-2-2-----|-2-2-2-2-2-2-2-2-2-2-2-2-2----|
|-0-0-0-0-0-0-0-0-0-0-0-0-----|-2-2-2-2-2-2-2-2-2-2-2-2-2----|
|-----------------------------|-0-0-0-0-0-0-0-0-0-0-0-0-0----|
|-----------------------------|------------------------------|


  E S S E S S E S E S S S    E S S E S S S S S E S S S
|-0-0-0-0-0-0-0-0-0-0-0-0--|-2-2-2-2-2-2-2-2-2-2-0-0-0---|
|-2-2-2-2-2-2-2-2-2-2-0-0--|-3-3-3-3-3-3-3-3-3-3-3-0-0---|
|-2-2-2-2-2-2-2-2-2-2-2-2--|-4-4-4-4-4-4-4-4-4-4-4-------|
|-2-2-2-2-2-2-2-2-2-2-2-2--|-4-4-4-4-4-4-4-4-4-4-4-------|
|-0-0-0-0-0-0-0-0-0-0-0-0--|-2-2-2-2-2-2-2-2-2-2-2-------|
|--------------------------|-----------------------------|

[ Tab from: http://www.guitaretab.com/numeric/4-non-blondes/282560.html ]
  E S S E S S S S S S S S S S   E S S E S S S S S E S S S
|-2-2-2-2-2-2-2-2-2-2-2-0-0-0-|-0-0-0-0-0-0-0-0-0-0-0-0-0----|
|-3-3-3-3-3-3-3-3-3-3-3-3-0-0-|-2-2-2-2-2-2-2-2-2-2-2-0-0----|
|-2-2-2-2-2-2-2-2-2-2-2-2-----|-2-2-2-2-2-2-2-2-2-2-2-2-2----|
|-0-0-0-0-0-0-0-0-0-0-0-0-----|-2-2-2-2-2-2-2-2-2-2-2-2-2----|
|-----------------------------|-0-0-0-0-0-0-0-0-0-0-0-0-0----|
|-----------------------------|------------------------------|


 Verse
   E S S E S S E S E S S S    E S S E S S S S S E S S S
|-0-0-0-0-0-0-0-0-0-0-0-0--|-2-2-2-2-2-2-2-2-2-2-0-0-0---|
|-2-2-2-2-2-2-2-2-2-2-0-0--|-3-3-3-3-3-3-3-3-3-3-3-0-0---|
|-2-2-2-2-2-2-2-2-2-2-2-2--|-4-4-4-4-4-4-4-4-4-4-4-------|
|-2-2-2-2-2-2-2-2-2-2-2-2--|-4-4-4-4-4-4-4-4-4-4-4-------|
|-0-0-0-0-0-0-0-0-0-0-0-0--|-2-2-2-2-2-2-2-2-2-2-2-------|
|--------------------------|-----------------------------|


  E S S E S S S S S S S S S S   E S S E S S S S S E S S S
|-2-2-2-2-2-2-2-2-2-2-2-0-0-0-|-0-0-0-0-0-0-0-0-0-0-0-0-0----|
|-3-3-3-3-3-3-3-3-3-3-3-3-0-0-|-2-2-2-2-2-2-2-2-2-2-2-0-0----|
|-2-2-2-2-2-2-2-2-2-2-2-2-----|-2-2-2-2-2-2-2-2-2-2-2-2-2----|
|-0-0-0-0-0-0-0-0-0-0-0-0-----|-2-2-2-2-2-2-2-2-2-2-2-2-2----|
|-----------------------------|-0-0-0-0-0-0-0-0-0-0-0-0-0----|
|-----------------------------|------------------------------|


  E S S E S S E S E S S S    E S S E S S S S S E S S S
|-0-0-0-0-0-0-0-0-0-0-0-0--|-2-2-2-2-2-2-2-2-2-2-0-0-0---|
|-2-2-2-2-2-2-2-2-2-2-0-0--|-3-3-3-3-3-3-3-3-3-3-3-0-0---|
|-2-2-2-2-2-2-2-2-2-2-2-2--|-4-4-4-4-4-4-4-4-4-4-4-------|
|-2-2-2-2-2-2-2-2-2-2-2-2--|-4-4-4-4-4-4-4-4-4-4-4-------|
|-0-0-0-0-0-0-0-0-0-0-0-0--|-2-2-2-2-2-2-2-2-2-2-2-------|
|--------------------------|-----------------------------|


  E S S E S S S S S S S S S S   E S S E S S S S S E S S S
|-2-2-2-2-2-2-2-2-2-2-2-0-0-0-|-0-0-0-0-0-0-0-0-0-0-0-0-0----|
|-3-3-3-3-3-3-3-3-3-3-3-3-0-0-|-2-2-2-2-2-2-2-2-2-2-2-0-0----|
|-2-2-2-2-2-2-2-2-2-2-2-2-----|-2-2-2-2-2-2-2-2-2-2-2-2-2----|
|-0-0-0-0-0-0-0-0-0-0-0-0-----|-2-2-2-2-2-2-2-2-2-2-2-2-2----|
|-----------------------------|-0-0-0-0-0-0-0-0-0-0-0-0-0----|
|-----------------------------|------------------------------|


 Pre Chorus
   E S S E S S E S E S S S    E S S E S S S S S E S S S
|-0-0-0-0-0-0-0-0-0-0-0-0--|-2-2-2-2-2-2-2-2-2-2-0-0-0---|
|-2-2-2-2-2-2-2-2-2-2-0-0--|-3-3-3-3-3-3-3-3-3-3-3-0-0---|
|-2-2-2-2-2-2-2-2-2-2-2-2--|-4-4-4-4-4-4-4-4-4-4-4-------|
|-2-2-2-2-2-2-2-2-2-2-2-2--|-4-4-4-4-4-4-4-4-4-4-4-------|
|-0-0-0-0-0-0-0-0-0-0-0-0--|-2-2-2-2-2-2-2-2-2-2-2-------|
|--------------------------|-----------------------------|


  E S S E S S S S S S S S S S   E S S E S S S S S E S S S
|-2-2-2-2-2-2-2-2-2-2-2-0-0-0-|-0-0-0-0-0-0-0-0-0-0-0-0-0----|
|-3-3-3-3-3-3-3-3-3-3-3-3-0-0-|-2-2-2-2-2-2-2-2-2-2-2-0-0----|
|-2-2-2-2-2-2-2-2-2-2-2-2-----|-2-2-2-2-2-2-2-2-2-2-2-2-2----|
|-0-0-0-0-0-0-0-0-0-0-0-0-----|-2-2-2-2-2-2-2-2-2-2-2-2-2----|
|-----------------------------|-0-0-0-0-0-0-0-0-0-0-0-0-0----|
|-----------------------------|------------------------------|


  E S S E S S E S E S S S    E S S E S S S S S E S S S
|-0-0-0-0-0-0-0-0-0-0-0-0--|-2-2-2-2-2-2-2-2-2-2-0-0-0---|
|-2-2-2-2-2-2-2-2-2-2-0-0--|-3-3-3-3-3-3-3-3-3-3-3-0-0---|
|-2-2-2-2-2-2-2-2-2-2-2-2--|-4-4-4-4-4-4-4-4-4-4-4-------|
|-2-2-2-2-2-2-2-2-2-2-2-2--|-4-4-4-4-4-4-4-4-4-4-4-------|
|-0-0-0-0-0-0-0-0-0-0-0-0--|-2-2-2-2-2-2-2-2-2-2-2-------|
|--------------------------|-----------------------------|


  E S S E S S S S S S S S S S   E S S E S S S S S E S S S
|-2-2-2-2-2-2-2-2-2-2-2-0-0-0-|-0-0-0-0-0-0-0-0-0-0-0-0-0----|
|-3-3-3-3-3-3-3-3-3-3-3-3-0-0-|-2-2-2-2-2-2-2-2-2-2-2-0-0----|
|-2-2-2-2-2-2-2-2-2-2-2-2-----|-2-2-2-2-2-2-2-2-2-2-2-2-2----|
|-0-0-0-0-0-0-0-0-0-0-0-0-----|-2-2-2-2-2-2-2-2-2-2-2-2-2----|
|-----------------------------|-0-0-0-0-0-0-0-0-0-0-0-0-0----|
|-----------------------------|------------------------------|


 Chorus
  E S S E S S E S E S S S    E S S E S S S S S E S S S
|-0-0-0-0-0-0-0-0-0-0-0-0--|-2-2-2-2-2-2-2-2-2-2-0-0-0---|
|-2-2-2-2-2-2-2-2-2-2-0-0--|-3-3-3-3-3-3-3-3-3-3-3-0-0---|
|-2-2-2-2-2-2-2-2-2-2-2-2--|-4-4-4-4-4-4-4-4-4-4-4-------|
|-2-2-2-2-2-2-2-2-2-2-2-2--|-4-4-4-4-4-4-4-4-4-4-4-------|
|-0-0-0-0-0-0-0-0-0-0-0-0--|-2-2-2-2-2-2-2-2-2-2-2-------|
|--------------------------|-----------------------------|


  E S S E S S S S S S S S S S   E S S E S S S S S E S S S
|-2-2-2-2-2-2-2-2-2-2-2-0-0-0-|-0-0-0-0-0-0-0-0-0-0-0-0-0----|
|-3-3-3-3-3-3-3-3-3-3-3-3-0-0-|-2-2-2-2-2-2-2-2-2-2-2-0-0----|
|-2-2-2-2-2-2-2-2-2-2-2-2-----|-2-2-2-2-2-2-2-2-2-2-2-2-2----|
|-0-0-0-0-0-0-0-0-0-0-0-0-----|-2-2-2-2-2-2-2-2-2-2-2-2-2----|
|-----------------------------|-0-0-0-0-0-0-0-0-0-0-0-0-0----|
|-----------------------------|------------------------------|


  E S S E S S E S E S S S    E S S E S S S S S E S S S
|-0-0-0-0-0-0-0-0-0-0-0-0--|-2-2-2-2-2-2-2-2-2-2-0-0-0---|
|-2-2-2-2-2-2-2-2-2-2-0-0--|-3-3-3-3-3-3-3-3-3-3-3-0-0---|
|-2-2-2-2-2-2-2-2-2-2-2-2--|-4-4-4-4-4-4-4-4-4-4-4-------|
|-2-2-2-2-2-2-2-2-2-2-2-2--|-4-4-4-4-4-4-4-4-4-4-4-------|
|-0-0-0-0-0-0-0-0-0-0-0-0--|-2-2-2-2-2-2-2-2-2-2-2-------|
|--------------------------|-----------------------------|


  E S S E S S S S S S S S S S   E S S E S S S S S E S S S
|-2-2-2-2-2-2-2-2-2-2-2-0-0-0-|-0-0-0-0-0-0-0-0-0-0-0-0-0----|
|-3-3-3-3-3-3-3-3-3-3-3-3-0-0-|-2-2-2-2-2-2-2-2-2-2-2-0-0----|
|-2-2-2-2-2-2-2-2-2-2-2-2-----|-2-2-2-2-2-2-2-2-2-2-2-2-2----|
|-0-0-0-0-0-0-0-0-0-0-0-0-----|-2-2-2-2-2-2-2-2-2-2-2-2-2----|
|-----------------------------|-0-0-0-0-0-0-0-0-0-0-0-0-0----|
|-----------------------------|------------------------------|


  E S S E S S E S E S S S    E S S E S S S S S E S S S
|-0-0-0-0-0-0-0-0-0-0-0-0--|-2-2-2-2-2-2-2-2-2-2-0-0-0---|
|-2-2-2-2-2-2-2-2-2-2-0-0--|-3-3-3-3-3-3-3-3-3-3-3-0-0---|
|-2-2-2-2-2-2-2-2-2-2-2-2--|-4-4-4-4-4-4-4-4-4-4-4-------|
|-2-2-2-2-2-2-2-2-2-2-2-2--|-4-4-4-4-4-4-4-4-4-4-4-------|
|-0-0-0-0-0-0-0-0-0-0-0-0--|-2-2-2-2-2-2-2-2-2-2-2-------|
|--------------------------|-----------------------------|


  E S S E S S S S S S S S S S   E S S E S S S S S E S S S
|-2-2-2-2-2-2-2-2-2-2-2-0-0-0-|-0-0-0-0-0-0-0-0-0-0-0-0-0----|
|-3-3-3-3-3-3-3-3-3-3-3-3-0-0-|-2-2-2-2-2-2-2-2-2-2-2-0-0----|
|-2-2-2-2-2-2-2-2-2-2-2-2-----|-2-2-2-2-2-2-2-2-2-2-2-2-2----|
|-0-0-0-0-0-0-0-0-0-0-0-0-----|-2-2-2-2-2-2-2-2-2-2-2-2-2----|
|-----------------------------|-0-0-0-0-0-0-0-0-0-0-0-0-0----|
|-----------------------------|------------------------------|


  E S S E S S E S E S S S    E S S E S S S S S E S S S
|-0-0-0-0-0-0-0-0-0-0-0-0--|-2-2-2-2-2-2-2-2-2-2-0-0-0---|
|-2-2-2-2-2-2-2-2-2-2-0-0--|-3-3-3-3-3-3-3-3-3-3-3-0-0---|
|-2-2-2-2-2-2-2-2-2-2-2-2--|-4-4-4-4-4-4-4-4-4-4-4-------|
|-2-2-2-2-2-2-2-2-2-2-2-2--|-4-4-4-4-4-4-4-4-4-4-4-------|
|-0-0-0-0-0-0-0-0-0-0-0-0--|-2-2-2-2-2-2-2-2-2-2-2-------|
|--------------------------|-----------------------------|


  E S S E S S S S S S S S S S   E S S E S S S S S E S S S
|-2-2-2-2-2-2-2-2-2-2-2-0-0-0-|-0-0-0-0-0-0-0-0-0-0-0-0-0----|
|-3-3-3-3-3-3-3-3-3-3-3-3-0-0-|-2-2-2-2-2-2-2-2-2-2-2-0-0----|
|-2-2-2-2-2-2-2-2-2-2-2-2-----|-2-2-2-2-2-2-2-2-2-2-2-2-2----|
|-0-0-0-0-0-0-0-0-0-0-0-0-----|-2-2-2-2-2-2-2-2-2-2-2-2-2----|
|-----------------------------|-0-0-0-0-0-0-0-0-0-0-0-0-0----|
|-----------------------------|------------------------------|


  E S S E S S E S E S S S    E S S E S S S S S E S S S
|-0-0-0-0-0-0-0-0-0-0-0-0--|-2-2-2-2-2-2-2-2-2-2-0-0-0---|
|-2-2-2-2-2-2-2-2-2-2-0-0--|-3-3-3-3-3-3-3-3-3-3-3-0-0---|
|-2-2-2-2-2-2-2-2-2-2-2-2--|-4-4-4-4-4-4-4-4-4-4-4-------|
|-2-2-2-2-2-2-2-2-2-2-2-2--|-4-4-4-4-4-4-4-4-4-4-4-------|
|-0-0-0-0-0-0-0-0-0-0-0-0--|-2-2-2-2-2-2-2-2-2-2-2-------|
|--------------------------|-----------------------------|


                                Slower (Shuffle Rhythm)
  E S S E S S S S S S S S S S   E S S E S S S S S E S S S
|-2-2-2-2-2-2-2-2-2-2-2-0-0-0-|-0-0-0-0-0-0-0-0-0-0-0-0-0----|
|-3-3-3-3-3-3-3-3-3-3-3-3-0-0-|-2-2-2-2-2-2-2-2-2-2-2-0-0----|
|-2-2-2-2-2-2-2-2-2-2-2-2-----|-2-2-2-2-2-2-2-2-2-2-2-2-2----|
|-0-0-0-0-0-0-0-0-0-0-0-0-----|-2-2-2-2-2-2-2-2-2-2-2-2-2----|
|-----------------------------|-0-0-0-0-0-0-0-0-0-0-0-0-0----|
|-----------------------------|------------------------------|


 Outro
  E S S E S S S S S E S S S    E S S E S S S S S S S S S S
|-0-0-0-0-0-0-0-0-0-0-0-0-0--|-2-2-2-2-2-2-2-2-2-2-2-2-0-0-|
|-2-2-2-2-2-2-2-2-2-2-2-0-0--|-3-3-3-3-3-3-3-3-3-3-3-3-0-0-|
|-2-2-2-2-2-2-2-2-2-2-2-2-2--|-4-4-4-4-4-4-4-4-4-4-4-4-----|
|-2-2-2-2-2-2-2-2-2-2-2-2-2--|-4-4-4-4-4-4-4-4-4-4-4-4-----|
|-0-0-0-0-0-0-0-0-0-0-0-0-0--|-2-2-2-2-2-2-2-2-2-2-2-2-----|
|----------------------------|-----------------------------|

              rit
  E S S E S S S S S E S S S    W
|-2-2-2-2-2-2-2-2-2-0-2-0-0--|-0----*|
|-3-3-3-3-3-3-3-3-3-3-3-3-0--|-2----*|
|-2-2-2-2-2-2-2-2-2-2-2-2----|-2----*|
|-0-0-0-0-0-0-0-0-0-0-0-0----|-2----*|
|----------------------------|-0----*|
|----------------------------|------*|


www.guitarstars.biz
Related for Whats Going On tab
Whats Going On chords by 4 Non Blondes