Song name
# A B C D E F G H I J K L M N O P Q R S T U V W X Y Z

4 Non Blondes - Calling All The People tab

Title: Calling all the People
Artist: 4 Non Blondes
Album: Bigger Better Faster More
Words: Linda Perry, Shaunna Hall, Christa Hillhouse, Wanda Day, Dawn Richardson
Music: Linda Perry, Shaunna Hall, Christa Hillhouse, Wanda Day, Dawn Richardson
Copyright: 4 Non Blondes
Tabber: Benjamin Vangeel
Instructions: benjaminvangeel@telenet.be
Tempo = 104
Lead Guitar

Legend
L - tied note
x - dead note
h - hammer on/pull off
b - bend
s - slide
~ - vibrato
g - ghost note
> - accentuated note
t - trill
M - palm mute
. - staccato
P - popping (bass)
S - slapping (bass)
+ - tapping
W - wide vibrato
< - fade in
w - whammy bar
= - tremolo picking
v - brush up
^ - brush down
V - pick stroke up
n - pick stroke down


E |----|----|----|----|----|----|----||---|----|----|----|----|----|----|----|
B |----|----|----|----|----|----|----||---|----|----|----|----|----|----|----|
G |----|----|----|----|----|----|----||o--|----|----|----|----|----|----|----|
D |----|----|----|----|----|----|----||o--|----|----|----|----|----|----|----|
A |----|----|----|----|----|----|----||---|----|----|----|----|----|----|----|
D |----|----|----|----|----|----|----||---|----|----|----|----|----|----|----|


E ----|----|----|----|----|----|----|----|----|----|----|----|----|----|----|----|
B ----|----|----|----|----|----|----|----|----|----|----|----|----|----|----|----|
G ----|----|----|----|----|----|----|----|----|----|----|----|----|----|----|----|
D ----|----|----|----|----|----|----|----|----|----|----|----|----|----|----|----|
A ----|----|----|----|----|----|----|----|----|----|----|----|----|----|----|----|
D ----|----|----|----|----|----|----|----|----|----|----|----|----|----|----|----|


E ----|----|---||----|-----5>-4--------------5>-4--------------5>-4-------|
B ----|----|---||----|-----------5>-4--------------5>-4--------------5h---|
G ----|----|--o||----|-----------------5>-4--------------5>-4-------------|
D ----|----|--o||----|----------------------------------------------------|
A ----|----|---||----|----------------------------------------------------|
D ----|----|---||----|----------------------------------------------------|

                                            w          w  w
E -----------5>-4-------------------------------------|----------------|
B --4--------------5>-4-------------------------------|----------------|
G -----5>-0--------------5--4s-3--2--2--2~----0L------|--0L-0L---------|
D ----------------------------------------------------|----------------|
A ----------------------------------------------------|----------------|
D ----------------------------------------------------|----------------|

  w
E --------------------------------------------------------------------------------|
B --------------------------------------------------------------------------------|
G --0-----------------------5h----7L----------------------------------------------|
D --------------------------------------------------------------------------------|
A --------------------------------------------------------------------------------|
D --------------------------------------------------------------------------------|


E --------------------------------------------------------------------------------|
B --------------------------------------------------------------------------------|
G ------------------------7~-------5~----------0L---------------------------------|
D --------------------------------------------------------------------------------|
A --------------------------------------------------------------------------------|
D --------------------------------------------------------------------------------|

 w           w                       w
E ---------------------------------------------------|
B ---------------------------------------------------|
G -0L----------0L----------------------0-------------|
D ---------------------------------------------------|
A ---------------------------------------------------|
D ---------------------------------------------------|


E ----------------------------------------------------|
B --10>10>---10>---x--10-10----10>---x--13L------13---|
G --9>-9>----9>----x--9--9-----9>----x--12L------12---|
D ----------------------------------------------------|
A ----------------------------------------------------|
D ----------------------------------------------------|


E ----------------------------------------------------|
B --10>10>---10>---x--10>10>---10>---x--13L------13---|
G --9>-9>----9>----x--9>-9>----9>----x--12L------12---|
D ----------------------------------------------------|
A ----------------------------------------------------|
D ----------------------------------------------------|


E ----------------------------------------------------|
B --10>10>---10>---x--10>10>---10>---x--13L------13---|
G --9>-9>----9>----x--9>-9>----9>----x--12L------12---|
D ----------------------------------------------------|
A ----------------------------------------------------|
D ----------------------------------------------------|


E --------------------------------------------------------------------------------|
B --10>---10~---------10L---10~10-10L---------10~---------10~---------------10>---|
G --9>----9~----------9L----9~-9--9L----------9~----------9~----------------9>----|
D --------------------------------------------------------------------------------|
A --------------------------------------------------------------------------------|
D --------------------------------------------------------------------------------|


E --------------------|----------------|----|----|----|----|----|
B ------------15------|--15>-----------|----|----|----|----|----|
G ------------14------|--14>-----------|----|----|----|----|----|
D --------------------|----------------|----|----|----|----|----|
A --------------------|----------------|----|----|----|----|----|
D --------------------|----------------|----|----|----|----|----|


E --10----10----10----10----10>10>10>10>10>10>10>10>--|
B --10----10----10----10----10>10>10>10>10>10>10>10>--|
G ----------------------------------------------------|
D --0-----0-----0-----0-----0>-0>-0>-0>-0>-0>-0>-0>---|
A ----------------------------------------------------|
D ----------------------------------------------------|


E --7>----7>-7>-7>-7>-7>-7>-7>-7--7--7--7>-7>-7>------||---|---||----||
B --8>----8>-8>-8>-8>-8>-8>-8>-8--8--8--8>-8>-8>------||---|---||----||
G ----------------------------------------------------||o--|--o||----||
D ----------------------------------------------------||o--|--o||----||
A ----------------------------------------------------||---|---||----||
D ----------------------------------------------------||---|---||----||


Rhythm Guitar


E |----|----|-------|----------------------------------------------------|
B |----|----|--6>---|--6>----------6>-------6L-6--6----------------------|
G |----|----|--5>---|--5>----------5>-------5L-5--5-----x--x--x--x--x----|
D |----|----|--7>---|--7>----------7>----9--7L-7--7-----x--x--x--x--x----|
A |----|----|--5>---|--5>----------5>-------5L-5--5-----x--x--x--x--x----|
D |----|----|--0>---|----------------------------------------------------|


E ----------------------------------------------------|
B --6>----------6>-------6L-6--6--------------0--0----|
G --5>----------5>-------5L-5--5-----x--x--x--0--0----|
D --7>----------7>----9--7L-7--7-----x--x--x--0--0----|
A --5>----------5>-------5L-5--5-----x--x--x----------|
D ----------------------------------------------------|


E --2>----------2--------2L-2--2----------------------|
B --3>----------3-----5--3L-3--3--------------5--3----|
G --2~----------2-----4--2L-2--2-----x--x--x--4--2----|
D --0>----------0--------0L-0--0-----x--x--x--0--0----|
A --0>----------0--------0L-0--0-----x--x--x--0--0----|
D --0>----------0--------0L-0--0----------------------|


E --2-----------2--------2L-2--2----------------------||
B --3-----------3-----5--3L-3--3--------------8--8----||
G --2-----------2-----4--2L-2--2-----x--x--x--7--7----||
D --0-----------0--------0L-0--0-----x--x--x--9--9----||
A --0-----------0--------0L-0--0-----x--x--x----------||
D --0-----------0--------0L-0--0----------------------||


E ---------------------------------------------------|
B -6>----------6>-------6L-6--6----------------------|
G o5>----------5>-------5L-5--5-----x--x--x--x--x----|
D o7>----------7>----9--7L-7--7-----x--x--x--x--x----|
A -5>----------5>-------5L-5--5-----x--x--x--x--x----|
D ---------------------------------------------------|


E ----------------------------------------------------|
B --6>----------6>-------6L-6--6--------------0--0----|
G --5>----------5>-------5L-5--5-----x--x--x--0--0----|
D --7>----------7>----9--7L-7--7-----x--x--x--0--0----|
A --5>----------5>-------5L-5--5-----x--x--x----------|
D ----------------------------------------------------|


E --2>----------2--------2L-2--2----------------------|
B --3>----------3-----5--3L-3--3--------------5--3----|
G --2~----------2-----4--2L-2--2-----x--x--x--4--2----|
D --0>----------0--------0L-0--0-----x--x--x--0--0----|
A --0>----------0--------0L-0--0-----x--x--x--0--0----|
D --0>----------0--------0L-0--0----------------------|


E --2-----------2--------2L-2--2----------------------|
B --3-----------3-----5--3L-3--3--------------8--8----|
G --2-----------2-----4--2L-2--2-----x--x--x--7--7----|
D --0-----------0--------0L-0--0-----x--x--x--9--9----|
A --0-----------0--------0L-0--0-----x--x--x----------|
D --0-----------0--------0L-0--0----------------------|


E ----------------------------------------------------|
B --6>----------6>-------6L-6--6----------------------|
G --5>----------5>-------5L-5--5-----x--x--x--x--x----|
D --7>----------7>----9--7L-7--7-----x--x--x--x--x----|
A --5>----------5>-------5L-5--5-----x--x--x--x--x----|
D ----------------------------------------------------|


E ----------------------------------------------------|
B --6>----------6>-------6L-6--6--------------0--0----|
G --5>----------5>-------5L-5--5-----x--x--x--0--0----|
D --7>----------7>----9--7L-7--7-----x--x--x--0--0----|
A --5>----------5>-------5L-5--5-----x--x--x----------|
D ----------------------------------------------------|


E --2>----------2--------2L-2--2----------------------|
B --3>----------3-----5--3L-3--3--------------5--3----|
G --2~----------2-----4--2L-2--2-----x--x--x--4--2----|
D --0>----------0--------0L-0--0-----x--x--x--0--0----|
A --0>----------0--------0L-0--0-----x--x--x--0--0----|
D --0>----------0--------0L-0--0----------------------|


E --2-----------2--------2L-2--2----------------------|-------|----------|-------|
B --3-----------3-----5--3L-3--3--------------8--8----|--7>---|--5>-10>--|--7>---|
G --2-----------2-----4--2L-2--2-----x--x--x--7--7----|--7>---|--5>-10>--|--7>---|
D --0-----------0--------0L-0--0-----x--x--x--9--9----|--7>---|--5>-10>--|--7>---|
A --0-----------0--------0L-0--0-----x--x--x----------|--5>---|--3>-8>---|--5>---|
D --0-----------0--------0L-0--0----------------------|--0>---|----------|--0>---|


E ----------|-------|----------|----------------------------|-------|-------|
B --5>-10>--|--7>---|--5>-10>--|--7>-7>-------7>-7>---------|-------|-------|
G --5>-10>--|--7>---|--5>-10>--|--7>-7>-------7>-7>---------|-------|-------|
D --5>-10>--|--7>---|--5>-10>--|--7>-7>-------7>-7>---------|-------|-------|
A --3>-8>---|--5>---|--3>-8>---|--5>-5>-------5>-5>---------|-------|-------|
D ----------|--0>---|----------|----------------------------|-------|-------|


E ----------------------------|----------------------------|
B ----------------------------|----------------------------|
G --9~----------------9s-7----|--7~-------------------0~---|
D ----------------------------|----------------------------|
A ----------------------------|----------------------------|
D ----------------------------|----------------------------|


E ----------------------------------------------------|
B --7>----7-----x--x--x--x--7>----7>----x--x--x--x----|
G --7>----7-----x--x--x--x--7>----7>----x--x--x--x----|
D --7>----7-----x--x--x--x--7>----7>----x--x--x--x----|
A --5>----5-----x--x--x--x--5>----5>----x--x--x--x----|
D ----------------------------------------------------|


E ----------------------------------------------------|
B --------------------------------------------0g------|
G --------------------------5>----5>------------------|
D --5>----5>----x--x--x--x--5>----5>----7-------------|
A --5>----5>----x--x--x--x--3>----3>-------7-----5----|
D --3>----3>----x--x--x--x----------------------------|


E ----------------------------------------------------|
B --7>----7-----x--x--x--x--7>----7>----x--x--x--x----|
G --7>----7-----x--x--x--x--7>----7>----x--x--x--x----|
D --7>----7-----x--x--x--x--7>----7>----x--x--x--x----|
A --5>----5-----x--x--x--x--5>----5>----x--x--x--x----|
D ----------------------------------------------------|


E ----------------------------------------------------|
B --------------------------------------------0g------|
G --------------------------5>----5>------------------|
D --5>----5>----x--x--x--x--5>----5>----7-------------|
A --5>----5>----x--x--x--x--3>----3>-------7-----5----|
D --3>----3>----x--x--x--x----------------------------|


E ----------------------------------------------------|
B --7>----7-----x--x--x--x--7>----7>----x--x--x--x----|
G --7>----7-----x--x--x--x--7>----7>----x--x--x--x----|
D --7>----7-----x--x--x--x--7>----7>----x--x--x--x----|
A --5>----5-----x--x--x--x--5>----5>----x--x--x--x----|
D ----------------------------------------------------|


E ----------------------------------------------------|
B --------------------------------------------0g------|
G --------------------------5>----5>------------------|
D --5>----5>----x--x--x--x--5>----5>----7-------------|
A --5>----5>----x--x--x--x--3>----3>-------7-----5----|
D --3>----3>----x--x--x--x----------------------------|


E --------------------------------------------------------------------------------|
B --------------------------------------------------------------------------------|
G --------------------------------------------------------------------------------|
D --------------0-----0-----------------------------------------------------------|
A -----------------------------------------------------5~-------------------------|
D --0-----------------------3L-3h----------0--------------------------------------|


E -----------------------|---------------------------||
B -----------------------|--6L-------------------6s--||
G -----------------------|--5L-------------------5s-o||
D -----------------------|--------------------------o||
A -----------------------|---------------------------||
D -----------------------|---------------------------||


E ----------------------------------------------------|--5L-------5----|-------|
B --------------------------------------------0g------|--5L-------5----|-------|
G --------------------------5>----5>------------------|--6L-------6----|-------|
D --5>----5>----x--x--x--x--5>----5>----7-------------|--7L-------7L---|--7----|
A --5>----5>----x--x--x--x--3>----3>-------7-----5----|----------------|-------|
D --3>----3>----x--x--x--x----------------------------|----------------|-------|


E ----------------------------------------------------|
B --10>10>x--10>---10-10>10>---10>---x--13L------13---|
G --9>-9>-x--9>----9--9>-9>----9>----x--12L------12---|
D ----------------------------------------------------|
A ----------------------------------------------------|
D ----------------------------------------------------|


E ----------------------------------------------------|
B --10>10>x--10>---10-10-10----10----x--13L------13---|
G --9>-9>-x--9>----9--9--9-----9-----x--12L------12---|
D ----------------------------------------------------|
A ----------------------------------------------------|
D ----------------------------------------------------|


E ----------------------------------------------------|
B --10>10>---10>---x--10-10----10>---x--13L------13---|
G --9>-9>----9>----x--9--9-----9>----x--12L------12---|
D ----------------------------------------------------|
A ----------------------------------------------------|
D ----------------------------------------------------|


E ----------------------------------------------------|
B --10>10>---10>---x--10>10>---10>---x--13L------13---|
G --9>-9>----9>----x--9>-9>----9>----x--12L------12---|
D ----------------------------------------------------|
A ----------------------------------------------------|
D ----------------------------------------------------|


E ----------------------------------------------------|
B --10>10>---10>---x--10>10>---10>---x--13L------13---|
G --9>-9>----9>----x--9>-9>----9>----x--12L------12---|
D ----------------------------------------------------|
A ----------------------------------------------------|
D ----------------------------------------------------|


E --------------------------------------------------------------------------------|
B --10>---10~---------10L---10~10-10L---------10~---------10~---------------10>---|
G --9>----9~----------9L----9~-9--9L----------9~----------9~----------------9>----|
D --------------------------------------------------------------------------------|
A --------------------------------------------------------------------------------|
D --------------------------------------------------------------------------------|


E --------------------|----------------|----|----|----|----|-------|
B ------------15------|--15>-----------|----|----|----|----|-------|
G ------------14------|--14>-----------|----|----|----|----|-------|
D --------------------|----------------|----|----|----|----|-------|
A --------------------|----------------|----|----|----|----|-------|
D --------------------|----------------|----|----|----|----|-------|


E --10----10----10----10----10>10>10>10>10>10>10>10>--|
B --10----10----10----10----10>10>10>10>10>10>10>10>--|
G ----------------------------------------------------|
D --0-----0-----0-----0-----0>-0>-0>-0>-0>-0>-0>-0>---|
A ----------------------------------------------------|
D ----------------------------------------------------|


E --7>----7>-7>-7>-7>-7>-7>-7>-7--7--7--7>-7>-7>------||
B --8>----8>-8>-8>-8>-8>-8>-8>-8--8--8--8>-8>-8>------||
G ----------------------------------------------------||
D ----------------------------------------------------||
A ----------------------------------------------------||
D ----------------------------------------------------||


E ---------------------------------------------------|
B -7>----7-----x--x--x--x--7>----7>----x--x--x--x----|
G o7>----7-----x--x--x--x--7>----7>----x--x--x--x----|
D o7>----7-----x--x--x--x--7>----7>----x--x--x--x----|
A -5>----5-----x--x--x--x--5>----5>----x--x--x--x----|
D ---------------------------------------------------|


E ---------------------------------------------------||
B --------------------------------------------0g-----||
G --------------------------5>----5>----------------o||
D --5>----5>----x--x--x--x--5>----5>----7-----------o||
A --5>----5>----x--x--x--x--3>----3>-------7-----5---||
D --3>----3>----x--x--x--x---------------------------||


E --------------------------1>------------------------||
B --7>----------------------1>------------------------||
G --7>----------------------2>------------------------||
D --7>----------15s------0--0>------------------------||
A --5>----------------------0>------------------------||
D --0>----------------------0>------------------------||


Rhythm Guitar

E |-------|
B |-------|
G |-------|
D |-------|
A |-------|
D |-------|


E --------------------------------------------------------------------------------|
B --------------------------------------------------------------------------------|
G --------------------------------------------------------------------------------|
D --------------------------------------------------------------------------------|
A -----------------------------------------------------5~-------------------------|
D --0>----------0-----0-----3L-3-----------0--------------------------------------|


E -----------------------|----------------------------|
B -----------------------|--6L----------6L-6s---------|
G -----------------------|--5L----------5L-5s---------|
D -----------------------|----------------------------|
A -----------------------|----------------------------|
D -----------------------|--------------------17>-----|


E --------------------------------------------------------------------------------|
B --------------------------------------------------------------------------------|
G --------------------------------------------------------------------------------|
D --------------------------------------------------------------------------------|
A -----------------------------------------------5L----5-----5-----5-----------3--|
D --0>----------0-----0-----3L-3>----0-----0--------------------------------------|


E -----------------------|
B -----------------------|
G -----------------------|
D -----------------------|
A ---------0-------------|
D -----------------------|


E --------------------------------------------------------------------------------|
B --------------------------------------------------------------------------------|
G --------------------------------------------------------------------------------|
D --------------------------------------------------------------------------------|
A --------------------------------------------------------------------------------|
D --0>----------0-----0-----3L-3>----------0-----0L----0-----0-----0-----0-----3L-|


E --------------------------|
B --------------------------|
G --------------------------|
D --------------------------|
A --------------------------|
D 3>----------0-------------|


E --------------------------------------------------------------------------------|
B --------------------------------------------------------------------------------|
G --------------------------------------------------------------------------------|
D --------------------------------------------------------------------------------|
A -----------------------------------------0-----5L----5-----5-----5-----------3--|
D --0-----------0-----0-----3L-3h----0--------------------------------------------|


E -----------------------|
B -----------------------|
G -----------------------|
D -----------------------|
A ---------0-------------|
D -----------------------|


E --------------------------------------------------------------------------------|
B -----------------------------------------------------------------6L----------6L-|
G -----------------------------------------------------------------5L----------5L-|
D --------------------------------------------------------------------------------|
A --------------------------------------------------------------------------------|
D --0-----------0-----0-----3L-3-----------0-----0L----0--------------------------|


E -----------------------||
B ---------------6s------||
G ---------------5s------||
D -----------------------||
A -----------------------||
D -----------------------||


E ---------------------------------------------------------------------------------|
B ---------------------------------------------------------------------------------|
G o--------------------------------------------------------------------------------|
D o0-------------------------------------------------------------------------------|
A -0--------------------------------------------5L----5----------------------------|
D -0-----------0-----------3L-3-----------0-----0L----0-----0-----0-----0-----3L-3-|


E -------------------------|
B -------------------------|
G -------------------------|
D -------------------------|
A -------------------------|
D -----------0-------------|


E --------------------------------------------------------------------------------|
B --------------------------------------------------------------------------------|
G --------------------------------------------------------------------------------|
D --------------------------------------------------------------------------------|
A --------------------------------------------------------------------------------|
D --0-----------0-----------3L-3-----------0-----0L----0-----0-----0-----0-----3L-|


E --------------------------|
B --------------------------|
G --------------------------|
D --------------------------|
A --------------------------|
D 3-----------0-------------|


E --------------------------------------------------------------------------------|
B --------------------------------------------------------------------------------|
G --------------------------------------------------------------------------------|
D --------------------------------------------------------------------------------|
A -----------------------------------------0-----5L----5-----5-----5-----------3--|
D --0-----------0-----0-----3L-3h----0--------------------------------------------|


E -----------------------|
B -----------------------|
G -----------------------|
D -----------------------|
A ---------0-------------|
D -----------------------|


E --------------------------------------------------------------------------------|
B -----------------------------------------------------------------6~-------------|
G -----------------------------------------------------------------5~-------------|
D --------------------------------------------------------------------------------|
A --------------------------------------------------------------------------------|
D --0-----------0-----0-----3L-3-----------0-----0L----0--------------------------|


E -----------------------|
B -----------------------|
G -----------------------|
D -----------------------|
A -----------------------|
D -----------------------|


E --------------------------------------------------------------------------------|
B --------------------------------------------------------------------------------|
G --------------------------------------------------------------------------------|
D --0-----------------------------------------------------------------------------|
A --0--------------------------------------------5L----5--------------------------|
D --0-----------0-----------3L-3-----------0-----0L----0-----0-----0-----0-----3L-|


E --------------------------|
B --------------------------|
G --------------------------|
D --------------------------|
A --------------------------|
D 3-----------0-------------|


E --------------------------------------------------------------------------------|
B --------------------------------------------------------------------------------|
G --------------------------------------------------------------------------------|
D --------------------------------------------------------------------------------|
A --------------------------------------------------------------------------------|
D --0-----------0-----------3L-3-----------0-----0L----0-----0-----0-----0-----3L-|


E --------------------------|
B --------------------------|
G --------------------------|
D --------------------------|
A --------------------------|
D 3-----------0-------------|


E --------------------------------------------------------------------------------|
B --------------------------------------------------------------------------------|
G --------------------------------------------------------------------------------|
D --------------------------------------------------------------------------------|
A -----------------------------------------0-----5L----5-----5-----5-----------3--|
D --0-----------0-----0-----3L-3h----0--------------------------------------------|


E -----------------------|
B -----------------------|
G -----------------------|
D -----------------------|
A ---------0-------------|
D -----------------------|


E --------------------------------------------------------------------------------|
B -----------------------------------------------------------------6~-------------|
G -----------------------------------------------------------------5~-------------|
D --------------------------------------------------------------------------------|
A --------------------------------------------------------------------------------|
D --0-----------0-----0-----3L-3-----------0-----0L----0--------------------------|


E -----------------------|----------------------------------------------------|
B -----------------------|--7>----7>----------------7>-7>-7>----x--x--x-------|
G -----------------------|--7>----7>----------x-----7>-7>-7>----x--x--x--5----|
D -----------------------|--7>----7>----------x-----7>-7>-7>----x--x--x--5----|
A -----------------------|--5>----5>----0M-0M-x--0M-5>-5>-5>----x--x--x-------|
D -----------------------|----------------------------------------------------|


E ----------------------------|
B --5>----5>-13-13>-----------|
G --5>----5>-14-14>-----------|
D --5>----5>-15-15>------7----|
A ----------------------------|
D ----------------------------|


E ----------------------------------------------------|
B --7>----7>----------------7>----7>----x--x--x-------|
G --7>----7>----x--x-----5--7>----7>----x--x--x-------|
D --7>----7>----x--x--9--7--7>----7>----x--x--x--5----|
A --5>----5>----x--x--------5>----5>----x--x--x-------|
D ----------------------------------------------------|


E ----------------------------|
B --5>----5>-13-13>-----------|
G --5>----5>-14-14>-----------|
D --5>----5>-15-15>------7----|
A ----------------------------|
D ----------------------------|


E ----------------------------------------------------|
B --7>----7>----------------7>----7>----x--x--x-------|
G --7>----7>----------------7>----7>----x--x--x-------|
D --7>----7>-------7--7--7--7>----7>----x--x--x--5----|
A --5>----5>----0--0--0--0--5>----5>------------------|
D ----------------------------------------------------|


E ----------------------------|----------------------------|
B --5>-------10-10>------7----|--7>-7>-------7>-7>---------|
G --5>-------10-10>------7----|--7>-7>-------7>-7>---------|
D --5>-------10-10>------7----|--7>-7>-------7>-7>---------|
A ----------------------------|--5>-5>-------5>-5>---------|
D ----------------------------|----------------------------|


E --10L---------------------------------10------------|--9>---|
B --10L---------------------------------10------------|--10>--|
G --7L----------------------------------7-----7--9----|--9>---|
D --------------------------------------------7-------|-------|
A ----------------------------------------------------|-------|
D ----------------------------------------------------|-------|


E --8L----------------------------------8-----10------|-------|
B --8L----------------------------------8-------------|--12>--|
G --------------------------------------------10------|--12>--|
D --------------------------------------------10h12---|--12>--|
A ----------------------------------------------------|-------|
D ----------------------------------------------------|-------|


E --10----------10----------10----10----10----10----10----------10----------------|
B --10----------10----------10----10----10----10----10----------10----------10L10-|
G --------------------------------------------------------------------------12L12-|
D --12----------12----------12----12----12----12----12----------12----------------|
A --------------------------------------------------------------------------------|
D --------------------------------------------------------------------------------|


E ---10----10------------|--7-----7-----7-----7-----8--8--8-----7-----7---------|
B ---10----10------------|--8-----8-----8-----8-----8--8--8-----8-----8---------|
G -----------------------|------------------------------------------------------|
D -----------------------|------------------------------------------------------|
A-----------------------|-------------------------------------------------------|
D -----------------------|------------------------------------------------------|


E --10----------10----------10----10----10----10----10----------10----------------|
B --10----------10----------10----10----10----10----10----------10----------10L10-|
G --------------------------------------------------------------------------12L12-|
D --12----------12----------12----12----12----12----12----------12----------------|
A --------------------------------------------------------------------------------|
D --------------------------------------------------------------------------------|


E ---10----10------------|--7-----7-----7-----7-----8--8--8-----7-----7-------|
B ---10----10------------|--8-----8-----8-----8-----8--8--8-----8-----8-------|
G -----------------------|----------------------------------------------------|
D -----------------------|----------------------------------------------------|
A -----------------------|----------------------------------------------------|
D -----------------------|----------------------------------------------------|


E --10----------10----------10----10----10----10----10----------10----------------|
B --10----------10----------10----10----10----10----10----------10----------10L10-|
G --------------------------------------------------------------------------12L12-|
D --12----------12----------12----12----12----12----12----------12----------------|
A --------------------------------------------------------------------------------|
D --------------------------------------------------------------------------------|


E ---10----10------------|--7-----7-----7-----7-----8--8--8-----7-----7-------|
B ---10----10------------|--8-----8-----8-----8-----8--8--8-----8-----8-------|
G -----------------------|----------------------------------------------------|
D -----------------------|----------------------------------------------------|
A -----------------------|----------------------------------------------------|
D -----------------------|----------------------------------------------------|


E ----------------------------------------------------|--1>--||
B ----------------------------------------------------|--1>--||
G --7L----------------------7-------------------------|--2>-o||
D --7L----------------------7s-------15s4h----0-------|--0>-o||
A --5L----------------------5-------------------------|------||
D ----------------------------------------------------|------||


E --7-----7-----7-----7-----8--8--8-----7-----7-------|
B --8-----8-----8-----8-----8--8--8-----8-----8-------|
G ----------------------------------------------------|
D ----------------------------------------------------|
A ----------------------------------------------------|
D ----------------------------------------------------|


E ----------------------------------------------------|
B ----------------------------------------------------|
G --2-----2-----2-----x--2L-2--2--2-----2--2--5-------|
D --2-----2-----2-----x--2L-2--2--2-----2--2--5-------|
A --0-----0-----0-----x--0L-0--0--0-----0--0--3-------|
D ----------------------------------------------------|


E ----------------------------------------------------|
B ----------------------------------------------------|
G --2-----2-----2-----x--2L-2--2--2-----2--x--5-------|
D --2-----2-----2-----x--2L-2--2--2-----2--x--5-------|
A --0-----0-----0-----x--0L-0--0--0-----0--x--3-------|
D ----------------------------------------------------|


E ----------------------------------------------------|
G ----------------------------------------------------|
B --2-----2-----2-----x--2L-2--2--2-----2--x--5-------|
D --2-----2-----2-----x--2L-2--2--2-----2--x--5-------|
A --0-----0-----0-----x--0L-0--0--0-----0--x--3-------|
D ----------------------------------------------------|


E ----------------------------------------------------|
G ----------------------------------------------------|
B --2-----2-----2-----x--2L-2--2--2-----2--x--5-------|
D --2-----2-----2-----x--2L-2--2--2-----2--x--5-------|
A --0-----0-----0-----x--0L-0--0--0-----0--x--3-------|
D ----------------------------------------------------|


E ----------------------------------------------------|
G ----------------------------------------------------|
B --2-----------2-----x--2L-2--2--2-----7--0--5-------|
D --2-----------2-----x--2L-2--2--2-----7--0--5-------|
A --0-----------0-----x--0L-0--0--0-----5--0--3-------|
D ----------------------------------------------------|


E ----------------------------------------------------|
G ----------------------------------------------------|
B --2-----------2-----x--2L-2--2--2-----7--0--5-------|
D --2-----------2-----x--2L-2--2--2-----7--0--5-------|
A --0-----------0-----x--0L-0--0--0-----5--0--3-------|
D ----------------------------------------------------|


E ----------------------------------------------------|
G ----------------------------------------------------|
B --2-----------2-----x--2L-2--2--2-----7--0--5-------|
D --2-----------2-----x--2L-2--2--2-----7--0--5-------|
A --0-----------0-----x--0L-0--0--0-----5--0--3-------|
D ----------------------------------------------------|


E ----------------------------------------------------|----------------|----|----|
G -----------------------------------------------7----|--7>------------|----|----|
B --2-----2--2L-2--2--2--2--2--2--2--2--2-----2--7----|--7>------------|----|----|
D --2-----2--2L-2--2--2--2--2--2--2--2--2-----2--7----|--7>------------|----|----|
A --0-----0--0L-0--0--0--0--0--0--0--0--0-----0--5----|--5>------------|----|----|
D -----------------------------------------------0----|--0>------------|----|----|


E ----|----|----|----------------------------------------------------|
G ----|----|----|--------------7-----7-----7--7--7--7--7--7--7--7----|
B ----|----|----|--7M----7-----7-----7-----7--7--7--7--7--7--7--7----|
D ----|----|----|--7M----7-----7-----7-----7--7--7--7--7--7--7--7----|
A ----|----|----|--5M----5-----5-----5-----5--5--5--5--5--5--5--5----|
D ----|----|----|----------------------------------------------------|


E ----------------------------------------------------||
G -----------------------5--5-----5-----x--x--x--7----||
B -----------------------5--5-----5-----x--x--x--7----||
D --5-----5>----x--x--x--5--5-----5-----x--x--x--7----||
A --5-----5>----x--x--x--3--3-----3-----x--x--x--5----||
D --3-----3>----x--x--x-------------------------------||


E -10----------10----------10----10----10----10----10----------10-----------------|
G -10----------10----------10----10----10----10----10----------10----------10L10--|
B o------------------------------------------------------------------------12L12--|
D o12----------12----------12----12----12----12----12----------12-----------------|
A --------------------------------------------------------------------------------|
D --------------------------------------------------------------------------------|


E --10----10------------|--7-----7-----7-----7-----8--8--8-----7-----7------||
G --10----10------------|--8-----8-----8-----8-----8--8--8-----8-----8------||
B ----------------------|--------------------------------------------------o||
D ----------------------|--------------------------------------------------o||
A ----------------------|---------------------------------------------------||
D ----------------------|---------------------------------------------------||


E --10L10---||
G --10L10---||
B ----------||
D --0L-0----||
A ----------||
D ----------||
Tap to rate this tab
# A B C D E F G H I J K L M N O P Q R S T U V W X Y Z