Song name
# A B C D E F G H I J K L M N O P Q R S T U V W X Y Z

4 Skins - Acab tab

Artist: 4-Skins
Song: A.C.A.B. (All Cops are Bastards)
Album: The Best of the 4-Skins
Tabbed by: Tyler Z.
Email: kid81992@juno.com
Tuning: Standard

e|-------------------------------------|
B|-------------------------------------|
G|-------------------------------------|
D|-9-9-9-9--7--7--7--5-5-5-5--9--9--9--|
A|-9-9-9-9--7--7--7--5-5-5-5--9--9--9--|
E|-7-7-7-7--5--5--5--3-3-3-3--7--7--7--|

e|-------------------------------------|
B|-------------------------------------|
G|-------------------------------------|
D|-9-9-9-9--7--7--7--5-5-5-5--2--2--2--|
A|-9-9-9-9--7--7--7--5-5-5-5--2--2--2--|
E|-7-7-7-7--5--5--5--3-3-3-3--0--0--0--|

e|-------------------------------------|
B|-------------------------------------|
G|-------------------------------------|
D|-9-9-9-9--7--7--7--5-5-5-5--9--9--9--|
A|-9-9-9-9--7--7--7--5-5-5-5--9--9--9--|
E|-7-7-7-7--5--5--5--3-3-3-3--7--7--7--|

e|-------------------------------------|
B|-------------------------------------|
G|-------------------------------------|
D|-9-9-9-9--7--7--7--5-5-5-5--2--2--2--|
A|-9-9-9-9--7--7--7--5-5-5-5--2--2--2--|
E|-7-7-7-7--5--5--5--3-3-3-3--0--0--0--|

e|---------------------------------------------------------|
B|---------------------------------------------------------|
G|-----------------------------------------------99999999--|
D|-5--7--9-9-9-9--5--7--9-9-9-9--5--7--9-9-9-9---99999999--|
A|-5--7--9-9-9-9--5--7--9-9-9-9--5--7--9-9-9-9---77777777--|
E|-3--5--7-7-7-7--3--5--7-7-7-7--3--5--7-7-7-7-------------|

e|-------------------------------------|
B|-------------------------------------|
G|-------------------------------------|
D|-9-9-9-9--7--7--7--5-5-5-5--2--2--2--|
A|-9-9-9-9--7--7--7--5-5-5-5--2--2--2--|
E|-7-7-7-7--5--5--5--3-3-3-3--0--0--0--|

e|-------------------------------------|
B|-------------------------------------|
G|-------------------------------------|
D|-9-9-9-9--7--7--7--5-5-5-5--9--9--9--|
A|-9-9-9-9--7--7--7--5-5-5-5--9--9--9--|
E|-7-7-7-7--5--5--5--3-3-3-3--7--7--7--|

e|-------------------------------------|
B|-------------------------------------|
G|-------------------------------------|
D|-9-9-9-9--7--7--7--5-5-5-5--2--2--2--|
A|-9-9-9-9--7--7--7--5-5-5-5--2--2--2--|
E|-7-7-7-7--5--5--5--3-3-3-3--0--0--0--|

e|-------------------------------------|
B|-------------------------------------|
G|-------------------------------------|
D|-9-9-9-9--7--7--7--5-5-5-5--9--9--9--|
A|-9-9-9-9--7--7--7--5-5-5-5--9--9--9--|
E|-7-7-7-7--5--5--5--3-3-3-3--7--7--7--|

e|---------------------------------------------------------|
B|---------------------------------------------------------|
G|-----------------------------------------------99999999--|
D|-5--7--9-9-9-9--5--7--9-9-9-9--5--7--9-9-9-9---99999999--|
A|-5--7--9-9-9-9--5--7--9-9-9-9--5--7--9-9-9-9---77777777--|
E|-3--5--7-7-7-7--3--5--7-7-7-7--3--5--7-7-7-7-------------|

e|-------------------------------------|
B|-------------------------------------|
G|-------------------------------------|
D|-9-9-9-9--7--7--7--5-5-5-5--2--2--2--|
A|-9-9-9-9--7--7--7--5-5-5-5--2--2--2--|
E|-7-7-7-7--5--5--5--3-3-3-3--0--0--0--|

e|-------------------------------------|
B|-------------------------------------|
G|-------------------------------------|
D|-9-9-9-9--7--7--7--5-5-5-5--9--9--9--|
A|-9-9-9-9--7--7--7--5-5-5-5--9--9--9--|
E|-7-7-7-7--5--5--5--3-3-3-3--7--7--7--|

e|-------------------------------------|
B|-------------------------------------|
G|-------------------------------------|
D|-9-9-9-9--7--7--7--5-5-5-5--2--2--2--|
A|-9-9-9-9--7--7--7--5-5-5-5--2--2--2--|
E|-7-7-7-7--5--5--5--3-3-3-3--0--0--0--|

e|---------------------------------------------------------|
B|---------------------------------------------------------|
G|-----------------------------------------------99999999--|
D|-5--7--9-9-9-9--5--7--9-9-9-9--5--7--9-9-9-9---99999999--|
A|-5--7--9-9-9-9--5--7--9-9-9-9--5--7--9-9-9-9---77777777--|
E|-3--5--7-7-7-7--3--5--7-7-7-7--3--5--7-7-7-7-------------|

e|-------------------------------------|
B|-------------------------------------|
G|-------------------------------------|
D|-9-9-9-9--7--7--7--5-5-5-5--2--2--2--|
A|-9-9-9-9--7--7--7--5-5-5-5--2--2--2--|
E|-7-7-7-7--5--5--5--3-3-3-3--0--0--0--|

e|-------------------------------------|
B|-------------------------------------|
G|-------------------------------------|
D|-9-9-9-9--7--7--7--5-5-5-5--9--9--9--|
A|-9-9-9-9--7--7--7--5-5-5-5--9--9--9--|
E|-7-7-7-7--5--5--5--3-3-3-3--7--7--7--|

e|-------------------------------------|
B|-------------------------------------|
G|-------------------------------------|
D|-9-9-9-9--7--7--7--5-5-5-5--2--2--2--|
A|-9-9-9-9--7--7--7--5-5-5-5--2--2--2--|
E|-7-7-7-7--5--5--5--3-3-3-3--0--0--0--|

e|---------------------------------------------------------|
B|---------------------------------------------------------|
G|-----------------------------------------------99999999--|
D|-5--7--9-9-9-9--5--7--9-9-9-9--5--7--9-9-9-9---99999999--|
A|-5--7--9-9-9-9--5--7--9-9-9-9--5--7--9-9-9-9---77777777--|
E|-3--5--7-7-7-7--3--5--7-7-7-7--3--5--7-7-7-7-------------|

e|----------------------------------------------------------|
B|----------------------------------------------------------|
G|-----------------------------------------------99999999--9|
D|-5--7--9-9-9-9--5--7--9-9-9-9--5--7--9-9-9-9---99999999--9|
A|-5--7--9-9-9-9--5--7--9-9-9-9--5--7--9-9-9-9---77777777--7|
E|-3--5--7-7-7-7--3--5--7-7-7-7--3--5--7-7-7-7--------------|
Tap to rate this tab
# A B C D E F G H I J K L M N O P Q R S T U V W X Y Z