Song name
# A B C D E F G H I J K L M N O P Q R S T U V W X Y Z

4 Skins - Norman tab

http://trouserpress.com/entry.php?a=4_skins
http://www.amazon.com/exec/obidos/ASIN/B000006YZK/qid=1120380149/sr=2-1/ref=pd_bbs_b_2_1/102-8182511-9395337
Band: 4-skins
Song: Norman


tabbed by jam9383@yahoo.com


Intro
e---------------------------------------------------------------------|
B---------------------------------------------------------------------|
G---------7-7---9-9--11-11------7-7--9-9--6-6-------------------------|
D-----7---7-7---9-9--11-11---7--7-7--9-9--6-6-------------------------|
A-----7---5-5---7-7--9--9----7--5-5--7-7--4-4-------------------------|
E-----5----------------------5----------------------------------------|

Verse

Palm Muted
e---------------------------------------------------------------------|
B---------------------------------------------------------------------|
G---------7-7---9-9--11-11------7-7--9-9--6-6-------------------------|
D-----7---7-7---9-9--11-11---7--7-7--9-9--6-6-------------------------|
A-----7---5-5---7-7--9--9----7--5-5--7-7--4-4-------------------------|
E-----5----------------------5----------------------------------------|

Bridge

e---------------------------------------------------------------------|
B---------------------------------------------------------------------|
G----7-7-7-7-7-7--7-7-7-7-7-7--7-7-7-7-7-7--9-9-9-9-9-9---------------|
D----7-7-7-7-7-7--7-7-7-7-7-7--7-7-7-7-7-7--9-9-9-9-9-9---------------|
A----5-5-5-5-5-5--7-7-7-7-7-7--5-5-5-5-5-5--7-7-7-7-7-7---------------|
E-----------------5-5-5-5-5-5-----------------------------------------|

Chorus

e---------------------------------------------------------------------|
B---------------------------------------------------------------------|
G---------------------------------------------------------------------|
D---7--7----7-----4--4------------------------------------------------|
A---7--7----7-----4--4---2-2-4-2-2-2-4-2------------------------------|
E---5--5----5-----2--2---0-0-0-0-0-0-0-0------------------------------|


any comments or corrections contact me please rate
Tap to rate this tab
 
# A B C D E F G H I J K L M N O P Q R S T U V W X Y Z