Song name
# A B C D E F G H I J K L M N O P Q R S T U V W X Y Z

4 Taste - Mas Tavlez tab

O solo que o Nelson faz nesta musica:

passa em www.4taste4ever.cjb.net e participa no forum!!!

Solo do inicio:

E----------|
B---------7|
G---7---9--|
D-9---9----|
A----------|
E----------|


Solo do meio:

E----------------------------------------------------------------------------|
B----------------------------------------------------------------------------|
G----------------------------------------------------------9-7-5-7-9-7-5-7-9-|
D-------------7-9-9-9-7---------------------7-9--9-9-7-----------------------|
A-10---10-10------------10-9-9-10-10--10-10------------10--------------------|
E----------------------------------------------------------------------------|


                    Ring    Ring       Ring
E--------------------|-------|----10----|
B--------------------|-12-10-|-12----10-|
G-12-12-11-12-11-12--|-------|----------|
D--------------------|-------|----------|
A--------------------|-------|----------|
E--------------------|-------|----------|

                                          FIM
E-------------------------------------------|
B-12-10-------------------------------------|
G-------12-11-12-11-------------9-9-7-------|
D-------------------12--12-12-9-------9-7---|
A-----------------------------------------10|
E-------------------------------------------|
Tap to rate this tab
 
# A B C D E F G H I J K L M N O P Q R S T U V W X Y Z