Song name
# A B C D E F G H I J K L M N O P Q R S T U V W X Y Z

40 Below Summer - Falling Down tab

Band  : 40 Below Summer 
Song  : Falling Down (CD Version) 
Album : Invitation to the Dance 
tabbed by: James Jarvis (canajun_eh2003@hotmail.com)
Tuning:  B-F#-B-E-G#-C# 


Intro/Pre-Verse:(w/dist) 
                                  
|----------------|--------------------------------| 
|----------------|--------------------------------| 
|----------------|--------------------------------| 
|----------------|4-4-4-4-4-4-4-4-------4-4-4-4-4-| 
|----------------|3-3-3-3-3-3-3-3-3-3-3-3-3-3-3-3-| 
|----------------|3-3-3-3-3-3-3-3-3-3-3-3-3-3-3-3-| 
                                  . . .   

Verse:(w/dist) 
         
|--------------------------------| 
|--------------------------------| 
|--------------------------------| 
|5---5-4---4-5---5-6---4-5---4---| 
|5---5-4---4-5---5-6---4-5---4---| 
|5---5-4---4-5---5-6---4-5---4---| 
 .   . .   . .   . .   . .   . 


Verse-Fill:(w/dist) 

|--------------------------------| 
|--------------------------------| 
|--------------------------------| 
|5---5-4---4-5-----------6-------| 
|5---5-4---4-5-----------6-------| 
|5---5-4---4-5-----------6-------| 
 .   . .   .  

Chorus:(w/dist) 

|--------------------------------|--------------------------------| 
|--------------------------------|--------------------------------| 
|--------------------------------|--------------------------------| 
|10----9-----3-----------3-------|--------3-----3---------3-------| 
|10----9-----3-----------3-------|----3---3-3---3---3-3-3-3---3-3-| 
|10----9-----3-----------3-------|----3---3-3---3---3-3-3-3---3-3-| 
                                      .     .       . . .     . . 

|--------------------------------|--------------------------------| 
|--------------------------------|--------------------------------| 
|--------------------------------|--------------------------------| 
|9-----7-----10----------10----10|----12------10------10------10--| 
|9-----7-----10----------10----10|----10------10------8-------7---| 
|9-----7-----10----------10----10|----10------10------10------10--| 


|--------------------------------|--------------------------------| 
|--------------------------------|--------------------------------| 
|--------------------------------|--------------------------------| 
|10----9-----3-----------3-------|--------3-----3---------3-------| 
|10----9-----3-----------3-------|----3---3-3---3---3-3-3-3---3-3-| 
|10----9-----3-----------3-------|----3---3-3---3---3-3-3-3---3-3-| 
                                      .     .       . . .     . . 
      3/8 
|------------| 
|------------| 
|------------| 
|9-----3-----| 
|9-----3-----| 
|9-----3-----| 
           
                                4x 
|--------------------------------|--------------------------------| 
|--------------------------------|--------------------------------| 
|--------------------------------|--------------------------------| 
|2-----2-----2-----2-----2-----2-|2-----2-----2-2-5-------4-------| 
|2-----2-----2-----2-----2-----2-|2-----2-----2-2-5-------4-------| 
|2-----2-----2-----2-----2-----2-|2-----2-----2-2-5-------4-------| 
 .     .     .     .     .     .  .     .     . . 


Second-Pre-Verse:(w/dist) 

|----------------|--------------------------------| 
|----------------|--------------------------------| 
|----------------|--------------------------------| 
|----------------|4-4-4-4-4-4-4-4-------4-4-4-4-4-| 
|----------------|3-3-3-3-3-3-3-3-3-3-3-3-3-3-3-3-| 
|----------------|3-3-3-3-3-3-3-3-3-3-3-3-3-3-3-3-| 
                                  . . .   

|----------------|--------------------------------| 
|----------------|--------------------------------| 
|----------------|5*5*5*5*5*5*x-------------------| 
|----------------|4-4-4-4-4-4-x-------------------| 
|----------------|3-3-3-3-3-3-x-------------------| 
|----------------|3-3-3-3-3-3-x-------------------| 


Solo:(w/vibrato and echo) 

|----------------|----------------|----------------|--------5-------| 
|----------------|----------------|----------------|----------------| 
|----------------|--------4-------|--------7-------|-----------7----| 
|----------------|---5----------5-|---7----------7-|---7----------7-| 
|---9----10------|----------------|----------------|------5---------| 
|9-----9---------|4-----4---------|5-----5---------|0---------------| 

                                 2x 
|----------------|----------------|----------------|--------5-------| 
|----------------|----------------|----------------|----------------| 
|----------------|--------4-------|--------7-------|-----------7----| 
|----------------|---5----------5-|---7------------|---7----------7-| 
|---9----10------|----------------|----------------|------5---------| 
|9-----9---------|4-----4---------|5-----5---------|0---------------| 

|----------------|----------------|----------------|--------5-------| 
|----------------|--------5-------|--------7-------|----------------| 
|----------------|--------4-------|--------7-------|-----------7----| 
|--------12------|---5------------|---7------------|---7----------7-| 
|---9----10------|----------------|----------------|------5---------| 
|9-----9---------|4-----4---------|5-----5---------|0---------------| 

|----------------|----------------|----------------|--------5-------| 
|----------------|----------------|--------7-------|----------------| 
|----------------|--------4-------|--------7-------|-----------7----| 
|--------12------|---5------------|---7------------|---7----------7-| 
|---9----10------|----------------|----------------|------5---------| 
|9-----9---------|4-----4---------|5-----5---------|0---------------| 

|----------------|----------------|----------------|----------------| 
|----------------|--------5-------|--------7-------|1010101010101010| 
|----------------|--------4-------|--------7-------|----------------| 
|--------12------|---5------------|---7------------|7-7-7-7-7-7-7-7-| 
|---9----10------|----------------|----------------|----------------| 
|9-----9---------|4-----4---------|5-----5---------|----------------| 
                                                 dist on, vibrato off 

Bridge-First-Part:[Guitar 1](clean) 
                                                    /   (w/dist)   \ 
|7b10------------|9---------------|7---------------|6767676767676767| 
|----------------|----------------|----------------|----------------| 
|----------------|----------------|----------------|----------------| 
|----------------|----------------|----------------|----------------| 
|----------------|----------------|----------------|----------------| 
|----------------|----------------|----------------|----------------| 
 /                   Clean Again                  \ 
|7b10------------|9---------------|7---------------| 
|----------------|----------------|----------------| 
|----------------|----------------|----------------| 
|----------------|----------------|----------------| 
|----------------|----------------|----------------| 
|----------------|----------------|----------------| 

Bridge-First-Part:[Guitar 2](w/dist) 

|----------------|----------------|----------------|----------------| 
|----------------|----------------|----------------|----------------| 
|----------------|----------------|7--7--7-7-----7-|7--7--7-7-------| 
|9--9--9-9-------|4--4--4-4-------|5--5--5-7-----7-|5--5--5-7-------| 
|9--9--9-9-------|4--4--4-4-------|5--5--5-5-----5-|5--5--5-5-------| 
|9--9--9-9-----0-|4--4--4-4-----0-|5--5--5-5-----5-|5--5--5-5-----5-| 

|----------------|----------------|----------------| 
|----------------|----------------|----------------| 
|----------------|----------------|7--7--7-7-----7-| 
|9--9--9-9-------|4--4--4-4-------|5--5--5-7-----7-| 
|9--9--9-9-------|4--4--4-4-------|5--5--5-5-----5-| 
|9--9--9-9-----0-|4--4--4-4-----0-|5--5--5-5-----5-| 


Bridge-Fill:(w/dist, tremolo, and echo) 

|--------------------------------|--------------------------------| 
|--------------------------------|--------------------------------| 
|--------------------------------|--------------------------------| 
|--------------------------------|----------------3*x-3*x-3*x-3*x-| 
|--------------------------------|--------------------------------| 
|7*x-7*x-7*x-7*x-7*x-7*x-7*x-7*x-|7*x-7*x-7*x-7*x-----------------| 


Bridge-Second-Part:(w/dist) 

|----------------|----------------|----------------|----------------| 
|----------------|----------------|----------------|----------------| 
|----------------|----------------|7--7--7-7---7-7-|7--7--7-7---7---| 
|9--9--9-9---9---|4--4--4--4--4---|5--5--5-7---7-7-|5--5--5-7---7---| 
|9--9--9-9---9---|4--4444--4444---|5--5--5-5---5-5-|5--5--5-5---5---| 
|9--9--9-9---9-0-|4--4444--4444-0-|5--5--5-5---5-5-|5--5--5-5---5-5-| 
                      ..    .. 

|----------------|----------------|----------------|----------------| 
|----------------|----------------|----------------|----------------| 
|----------------|----------------|7--7--7-7---7-7-|7--7--7-7---7---| 
|9--9--9-9---9---|4--4--4-4---4---|5--5--5-7---7-7-|5--5--5-7---7---| 
|9--9--9-9---9---|4--4--4-4---4---|5--5--5-5---5-5-|5--5--5-5---5---| 
|9--9--9-9---9-0-|4--4--4-4---4-0-|5--5--5-5---5-5-|5--5--5-5---5-5-| 
                                  
|----------------|----------------|----------------|----------------| 
|----------------|----------------|----------------|----------------| 
|----------------|----------------|7--7--7--7--7-7-|7--7--7--7--7---| 
|9--9--9--9--9---|4--4--4--4--4---|5--5--5--7--7-7-|5--5--5--7--7---| 
|9--9999--9999---|4--4444--4444---|5--5555--5555-5-|5--5555--5555---| 
|9--9999--9999-0-|4--4444--4444-0-|5--5555--5555-5-|5--5555--5555-5-| 
     ..    ..         ..    ..         ..    ..         ..    .. 

|----------------|----------------|----------------|----------------| 
|----------------|----------------|----------------|----------------| 
|----------------|----------------|7--7--7--7--7-7-|7---7---7---7---| 
|9--9--9--9--9---|4--4--4--4--4---|5--5--5--7--7-7-|7---7---7---7---| 
|9--9999--9999---|4--4444--4444---|5--5555--5555-5-|5---5---5---5---| 
|9--9999--9999-0-|4--4444--4444-0-|5--5555--5555-5-|5---5---5---5---| 
     ..    ..         ..    ..         ..    .. 


Outro:(w/dist) (don't palm-mute the top 3 strings (G-B-E)) 

                                2x 
|--------------------------------|--------------------------------| 
|--------------------------------|--------------------------------| 
|--------------------------------|--------------------------------| 
|2-----2-----2-----2-----2-----2-|2-----2-----2-2-5-------4-------| 
|2-----2-----2-----2-----2-----2-|2-----2-----2-2-5-------4-------| 
|2-----2-----2-----2-----2-----2-|2-----2-----2-2-5-------4-------| 
 .     .     .     .     .     .  .     .     . . 

                                2x 
|--------------------------------|--------------------------------| 
|5-------------------------------|x---------------8-------7-------| 
|4-------------------------------|x---------------7-------6-------| 
|2-----2-----2-----2-----2-----2-|2-----2-----2-2-5-------4-------| 
|2-----2-----2-----2-----2-----2-|2-----2-----2-2-5-------4-------| 
|2-----2-----2-----2-----2-----2-|2-----2-----2-2-5-------4-------| 
 .     .     .     .     .     .  .     .     . .
Tap to rate this tab
 
# A B C D E F G H I J K L M N O P Q R S T U V W X Y Z