Song name
# A B C D E F G H I J K L M N O P Q R S T U V W X Y Z

40 Below Summer - Better Life tab

40 Below Summer: Better Life
Tabbed by 2Fisted
Tuning: Drop B

Intro
-----------------------------------------| X4
-----------------------------------------|
-----------------------------------------|
-000-4--3--4--3-4------------------------|

Verse
-----------------------------------------|
-----------------------------------------|
-----------------------------------------| X4
-2-2--2-2-2-2-23---2-2-2-2-3-3-3-3-------|
Chorus
-----------------------------------------|
-----------------------------------------|
-5555555555555555-11111111-33333333------|
-----------------------------------------|
Interlude 1
-----------------------------------------|
-----------------------------------------|
-----------------------------------------|
-000-4--3--4--3-4------------------------|

Interlude 2
-----------------------------------------|
-----------------------------------------|
-----------------------------------------| X4
-000-------------------------------------|

Interlude 3
-----------------------------------------| X4
-----------------------------------------|
-----------------------------------------|
-000-4--3--4--3-4------------------------|

Outro
-----------------------------------------|
-----------------------------------------|
-----------------------------------------|
-2-2--2-2-2-2-23~~~----------------------|
Tap to rate this tab
# A B C D E F G H I J K L M N O P Q R S T U V W X Y Z