Song name
# A B C D E F G H I J K L M N O P Q R S T U V W X Y Z

40 Below Summer - Disease tab

40 Below Summer: Disease
Tabbed by 2Fisted
Tuning: Drop B

Intro
-----------------------------|
-----------------------------|
-----------------------------|
-----------------------------|
-----------------32----------|
-0h3-3-1v--0h3-33------------|
     .         ..
Intro 2/Chorus
-----------------------------------------------|
-----------------------------------------------|
----------------------------------------444444-|
-0h3------------0h3p2h3--0h3------------444444-|
-0h3-3333333333-0h3p2h3--0h3-33333333-3-222222-|
-0h3-3333333333-0h3p2h3--0h3-33333333-3--------|
     ..........              ........ .
-------------------------------------------------|
-------------------------------------------------|
--------------------------------------4444-------|
-0h3------------0h3p2h3--0h2----------4444---0~--|
-0h3-3333333333-0h3p2h3--0h2-33333333-2222-0-0~--|
-0h3-3333333333-0h3p2h3--0h2-33333333------0-0~--|
     ..........              ........      .
Verse
-----------------------------|
-----------------------------|
-----------------------------|
-----------------------------|
-----------------------------|
-2h3p2-0-0-2h3p2h3p2h3-0000--|
       .               ....
Interlude 1
----------------------------------------------|
----------------------------------------------|
----------------------------------------------|
---------2----0---0-0-----0---0---0-----0---0-|
---------2-00-0-0-0-0-000-0-0-0-0-0-000-0-0-0-|
-3332220-2-00-0-0-0-0-000-0-0-0-0-0-000-0-0-0-|
 ......    ..   .     ...   .   .   ...   .
Interlude 2(after a couple times, palm mute ALL 2's and 3's)
----------------------|
----------------------|
----------------------|
--------5~---------0~-|
-333222-5~--333222-0~-|
-333222-5~--333222-0~-|
            ......
*Play Interlude 1 without palm muting 2's and 3's)
*Play Interlude 2 with all 2's and 3's palm muted)
Tap to rate this tab
# A B C D E F G H I J K L M N O P Q R S T U V W X Y Z