Song name
# A B C D E F G H I J K L M N O P Q R S T U V W X Y Z

40 Below Summer - Little Lover tab

40 Below Sumemr: Little Lover
Tabbed by 2Fisted
Tuning: drop B

Intro/Verse(dist.)
-----------------------------|
-----------------------------|
--9---7---5---7---8----------|
-----------------------------|
-7---5--33--55--66-----------|
-----------------------------|
 ..  .. ... ... ...
Pre-Cuorus
---------|
---------|
---------|
-0~------|
-0~------|
-0~------|
Chorus
-----------------------------|
-----------------------------|
-----------------------------|
-0~-3~----0~-3~--------------|
-0~-3~-33-0~-3~-33-3-22------|
-0~-3~-33-0~-3~-33-3-22------|
       ..       .. . ..
Interlude/Outro
-----------------------------|
-------------15--------------|
-14-----14-------------------|
---12-----12-----------------|
-----------------------------|
-----------------------------|
Tap to rate this tab
# A B C D E F G H I J K L M N O P Q R S T U V W X Y Z