Song name
# A B C D E F G H I J K L M N O P Q R S T U V W X Y Z

40 Below Summer - How Long tab

Help us improve GuitareTab! Take a short survey!
Band: 40 Below Summer
Song: How Long?
Tuning: Drop B

(I usually never put legends, but I did only cause I have a pinch harmonic in it)

. means PM
b meand bend
~ means ring
p means pulloff
ph means pinch harmonic

Intro(x1)
---------|
---------|
---------|
-03-03---|
-03-03---|
-03-03---|
 .  .
Verse(make sure to listen for timing, abd the bends are only slight)
----------------------------------------|
----------------------------------------|
----------------------------------------|
-2222-222-2-2-222-2-2-222---------------|
-2222-222-2-2-222-2-2-222-------6b------|
-2222-222-2-2-222-2-2-222-5b5b5b--676---|

----------------------------------------|
----------------------------------------|
----------------------------------------|
-2222-222-2-2-2-2-2-2-222---------------|
-2222-222-2-2-2-2-2-2-222-------6b------|
-2222-222-2-2-2-2-2-2-222-5b5b5b--676---|
                          . . .   ...
----------------------------------------|
----------------------------------------|
----------------------------------------|
-2222-222-2-2-222-2-2-222---------------|
-2222-222-2-2-222-2-2-222-------6ph-----|
-2222-222-2-2-222-2-2-222-5b5b5b--676---|

----------------------------------|
----------------------------------|
----------------------------------|
-2222-222-2-2-2-2-2-20000-2~-3~---|
-2222-222-2-2-2-2-2-20000-2~-3~---|
-2222-222-2-2-2-2-2-20000-2~-3~---|
                     ....
Chorus
-------------------------------|
-------------------------------|
-------------------------------|
-----------------------03-03---|
-----------------------03-03---|
-30230~-0305023-30230~-03-03---|
                       .  .
-------------------------------------|
-------------------------------------|
-------------------------------------|
-----------------------03333-03333---|
-----------------------03333-03333---|
-30230~-0305023-30230~-03333-03333---|

-------------------------------------|
-------------------------------------|
-------------------------------------|
-------------------------------------|
-------------------------------------|
-30230~-0305023-30230~-03333-03333---|
 ....   ....... ....
-------------------------------|
-------------------------------|
-------------------------------|
-----------------------03-03---|
-----------------------03-03---|
-30230~-0305023-30230~-03-03---|
 ....   ....... ....   .  .
Fill 1
--------------------------|
--------------------------|
--------------------------|
-200-300-500-300-0--------|
-200-300-500-300-0--------|
-200-300-500-300-0-2.7*---|
  ..  ..  ..  .. .
-verse
-chorus
Interlude 1
------|
------|
------|(7 count ring, other guitar slides up)
-0~---
-0~---
-0~---
Interlude 2
---------------------|
---------------------|
---------------------|X2
-2-0000-3-0~-0~-0~---|
-2-0000-3-0~-0~-0~---|
-2-0000-3-0~-0~-0~---|
   ....
Interlude 3(x2)
-------------------------------|
-------------------------------|
-------------------------------|
-200000-200000-533333-522222---|
-200000-200000-533333-522222---|
-200000-200000-533333-522222---|
  .....  .....  .....  .....
-------------------------------|
-------------------------------|
-------------------------------|
-200000-200000-577777-799999---|
-200000-200000-577777-799999---|
-200000-200000-577777-799999---|
  .....  .....  .....
Fill 2
-----------------------------------------|
-----------------------------------------|
-----------------------------------------|
-200-300-500-300-2p0-2p0-2-3-5-3-3-2-3---|
-200-300-500-300-2p0-2p0-2-3-5-3-3-2-3---|
-200-300-500-300-2p0-2p0-2-3-5-3-3-2-3---|
  ..  ..  ..  ..                 . . .
-Chorus
Outro
------------------------|
------------------------|
------------------------|
-200-300000-2000-2000---|(1st line)
-200-300000-2000-2000---|
-200-300000-2000-2000---|
  ..  .....  ...  ...
----------------------|
----------------------|
----------------------|
-200-300000-055-055---|(2nd line)
-200-300000-055-055---|
-200-300000-055-055---|
  ..  ..... .   .
(this gets played in this order):
-1st line
-2nd line
-1st line
-2nd line
-1st line
then:
------------------------------|
------------------------------|
------------------------------|
-200-300000--5--5--5--5--0~---|
-200-300000--5--5--5--5--0~---|
-200-300000--5--5--5--5--0~---|
  ..  .....
Related for How Long tab