Song name
# A B C D E F G H I J K L M N O P Q R S T U V W X Y Z

40 Below Summer - Drown tab

Dist. Part A
-------------------------------------------------------------|
|------------------------------------------------------------|
|---------------------------14-14-14-15---14/12---14-15-14-14|
|----3-------1-1-1-0-----------------------------------------|
|----3-------1-1-1-0-----------------------------------------|
|----3-------1-1-1-0-----------------------------------------|

---------------------|
---------------------|
---------------------|
3--------1-1-1-0-----|
3--------1-1-1-0-----|
3--------1-1-1-0-----|


Part B ( verse)
*bass*

Part A

Part B

Guitar 1
P.M._______________________|
|-------------------------------------------------------|
|-------------------------------------------------------|
|-------------------------------------------------------|
|0-------0-0-0---------0-0------------------------------|
|0-------0-0-0---------0-0------------------------------|
|0-------0-0-0---------0-0------------------------------|


Guitar 2
I don't know this part exactly but what you could do is play around with the single 
part and it'll sound almost like it.

Part A

Part C
Bass with drum stick click, water effect  occasional open power chord (clean) played. 
the distortion comes and  you strike the the open power chord again

Part A ( 2x's )
Tap to rate this tab
# A B C D E F G H I J K L M N O P Q R S T U V W X Y Z