Song name
# A B C D E F G H I J K L M N O P Q R S T U V W X Y Z

40 Below Summer - Season In Hell tab

Song: Season In Hell
Artist: 40 Below Summer
Album: The Mourning After
TUning: Low to High: (B, F#, B, E, G#, C#)

Intro
|------------------------------|
|------------------------------|
|------------------------------|
|------------------------------|
|--1-2-------------------------|
|--1-2-1-5-4-3--4-3-2--3-2-3---|


Verse

Guitar 1 
|----------------|
|----------------|
|-4-4-4----------|
|-2-2-2----------|
|-2-2-2----------|
|-2-2-2----------|

Guitar 2 with Wah
|----------------|
|----------------|
|--------4-4-4---|
|--------2-2-2---|
|--------2-2-2---|
|--------2-2-2---|


Chorus
|--------------------------------------|
|--------------------------------------|
|--------------------------------------|
|--------------------------------------|
|-1-------1-1-1--2-2-2-2-2-2-2-2-2-1---|
|-1-------1-1-1--2-2-2-2-2-2-2-2-2-1---|
       pm.......


Ending pt. a
|--------------------------------------------------|
|------------------------5-------------------------|
|--------0-----------5-----5---5--------0----------|
|----4-------------3---3-----3------4-----4---4----|
|--5---5--------------------------3---3-----3------|
|--------------------------------------------------|


Ending pt. b
|----------------------------------------------------|
|----------------------------------------------------|
|-5/7-7-7------7/10-10-10-10-10-10-105-5-5-5-5-5-5--|
|---------0------------------------------------------|
|-3/5-5-5-0----5/8--8--8--8--8--8--8-3-3-3-3-3-3-3--|
|---------0------------------------------------------|
Tap to rate this tab
 
# A B C D E F G H I J K L M N O P Q R S T U V W X Y Z