Song name
# A B C D E F G H I J K L M N O P Q R S T U V W X Y Z

40 Below Summer - Wither Away tab

b4 playing this song, you have tone your guitar a drop D
(means #6 string in a 7th fret should be same tone with #5 open)

~
|---------------------------------------|
|---------------------------------------|
|---------------------------------------|
|-7----------3---5-----7----------3---5-|
|-7----------3---5-----7----------3---5-|
|-7----------3---5-----7----------3---5-|

~
|---------------------------------------|
|---------------------------------------|
|---------------------------------------|
|-7----------3---5-----7----------3---5-|
|-7----------3---5-----7----------3---5-|
|-7----------3---5-----7----------3---5-|

|-7-7------------------||-7-7---------------|
|-----7-7--9-9-9--5-5--||-----7-7--9-9-9----|
|----------------------||----------------7--|
|----------------------||-------------------|
|----------------------||-------------------|
|----------------------||-------------------|

|-7-7------------------||-7-7---------------|
|-----7-7--9-9-9--5-5--||-----7-7--9-9-9----|
|----------------------||----------------7--|
|----------------------||-------------------|
|----------------------||-------------------|
|----------------------||-------------------|
Tap to rate this tab
# A B C D E F G H I J K L M N O P Q R S T U V W X Y Z