Song name
# A B C D E F G H I J K L M N O P Q R S T U V W X Y Z

40 Below Summer - Step Into The Sideshow tab

----------------------------------------------------------------------------
			     step into the side show - 40 below summer
----------------------------------------------------------------------------
Tabbed by:7 string sin

Email:dtone40below@hotmail.com                   (Perfect tab)

Tuning:DADGBE

intro/verse

e|--------------------------------------------------------------------------
B|--------------------------------------------------------------------------
G|--------------------------------------------------------------------------
D|-------5-----------4----------2h3-3p2-0---0-----------------------------
A|-------3-----------2----------2h3-3p2---------------------------------
D|--0--0--------0--0-------0-0--2h3-3p2-0---0------------------------------
   ......     .......      ...          .....

chorus

e|--------------------------------------------------------------------------
B|--------------------------------------------------------------------------
G|--------------------------------------------------------------------------
D|--------------------------------------5-----4---------------------------
A|-3-2--22--2-3-2--22--2-3-2--22--------3-----2---------------------------
E|-3-2--22--2-3-2--22--2-3-2--22--0-0-0---0-0-------------------------------
                                 ....... .....
bridge

e|--------------------------------------------------------------------------
B|--------------------------------------------------------------------------
G|--------------------------------------------------------------------------
D|--0--2--4-5-4-2-4---------------------------------------------------
A|--0--2--2-3-2-0-2---0--0--2-3-----0-0-------------------------------------
E|--0--2--------------0--0--2-3-----0-0----------------------------------
                                    ...
"The ending is a little to0 hard to figure out but the rest is perfect so work your way off that youll get it."

"gimme 5 stars u know it deserves it:)"






| /  slide up
| \  slide down
| h  hammer-on
| p  pull-off
| ~  vibrato
| +  harmonic
| x  Mute note
===============================================================================
Tap to rate this tab
# A B C D E F G H I J K L M N O P Q R S T U V W X Y Z