Song name
# A B C D E F G H I J K L M N O P Q R S T U V W X Y Z

40 Below Summer - Rejection tab

40 Below Summer: Rejection
Tabbed by 2Fisted
Tuning: Drop B

Intro(clean)
----------------------------------|
----------------------------------|
----3---------3-------------------|
-----3---------3------------------|
--1---------2---------------------|
-1-----1-2-2-----2-1--------------|

----------------------------------|
--------------3-------------------|
----3-----------------------------|
-----3----------------------------|
--1---------2---------------------|
-1-----1-2-2----------------------|
Verse (play X2)
----------------------------------|
----------------------------------|
----3---------3-------------------|
-----3---------3------------------|
--1---------2---------------------|
-1-----1-2-2-----2-1--------------|

----------------------------------|
--------------3-------------------|
----3-----------------------------|
-----3----------3-----------------|
--1---------2---------------------|
-1-----1-2-2------2-1-------------|
*Play the Intro Riff once here.*
Pre-Chorus
----------------------------------|
----------------------------------|
----------------------------------|
------2---------------------------|
-1--2-----------------------------|
--1-----2-------------------------|
Chorus(dist.,give a pause after each one of these riffs)
----------------------------------|
----------------------------------|
-9~--------9~---------------------|
-9~-0~-1~--9~-0~-1~---------------|
-7~-0~-1~--7~-0~-1~---------------|
----0~-1~-----0~-1~---------------|
Interlude 1
----------------------------------|
----------------------------------|
----------------------------------|
----------------------------------|
-3232-3-3232-3-32-2---------------|
-3232-3-3232-3-32-2---------------|
 ....   ....   ..
----------------------------------|
----------------------------------|
----------------------------------|
----------------------------------|
-3232-3-3232-3-32-----------------|
-3232-3-3232-3-32-----------------|
 ....   ....   .
Interlude 2
----------------------------------|
----------------------------------|
----------------------------------|
----------------------------------|
-3232-3-3232-3-32-2---------------|
-3232-3-3232-3-32-2---------------|
 ....   ....   ..
----------------------------------|
----------------------------------|
----------------------------------|
----------------------------------|
-3232-3-3232-3--------------------|
-3232-3-3232-3--------------------|
 ....   ....
Interlude 3
----------------------------------|
----------------------------------|
----------------------------------|
----------------------------------|
-3232-3-3232-3-32-2---------------|
-3232-3-3232-3-32-2---------------|
 ....   ....   ..
----------------------------------|
----------------------------------|
----------------------------------|
----------------------------------|
-3232-3-3232-33-22----------------|
-3232-3-3232------33--------------|
 ....   ....
----------------------------------|
----------------------------------|
----------------------------------|
----------------------------------|
-3232-3-3232-3-32-2---------------|
-3232-3-3232-3-32-2---------------|
 ....   ....   ..
----------------------------------|
----------------------------------|
----------------------------------|
----------------------------------|
-3232-3-3232-3--------------------|
-3232-3-3232-3--------------------|
 ....   ....
Interlude 4
----------------------------------|
----------------------------------|
----------------------------------|
----------------------------------|
-222322-2223333-------------------|
-222322-2223333-------------------|
 ... .. ...
----------------------------------|
----------------------------------|
----------------------------------|
----------------------------------|
-222322-222-----------------------|
-222322-222-----------------------|
 ... .. ...
Interlude 5
----------------------------------|
----------------------------------|
----------------------------------|
------------4bv-------------------|
-222322-222-----------------------|
-222322-222-----------------------|
 ... .. ...
-------------4bv------------------|
----------------------------------|
----------------------------------|
----------------------------------|
-222322-222-----------------------|
-222322-222-----------------------|
 ... .. ...
Interlude 6
----------------------------------|
----------------------------------|
----------------------------------|
------------4bv-------------------|
-000-0--000-----------------------|
-000-0--000-----------------------|
 ...    ...
Interlude 7
----------------------------------|
----------------------------------|
----------------------------------|
----------------------------------|
-22222-22220-22222-222------------|
-22222-22220-22222-222------------|
 .. .  .. .  .. .  ..
Interlude 8
------------------------------|------|
------------------------------|------|
------------------------------|------|
------------------------------|------| Only play this ending
-22222-22222-220--22222-22222-|-3333-| the first time.
-22222-22222-220--22222-22222-|-3333-|
 ....  ....  ..   ....   ....
Tap to rate this tab
# A B C D E F G H I J K L M N O P Q R S T U V W X Y Z