Song name
# A B C D E F G H I J K L M N O P Q R S T U V W X Y Z

40 Below Summer - Monday Song tab

Band:   40 Below Summer
Song:   Monday Song
Album: The Mourning After

Complete Song for Guitar 1 Only (Joey D'Amico)

Tuning: Low to High (B F# B E G# C#)

       

      Clean
C#    ---------------------------------------------
G#    ---------------------------------------------
E     ---------------6-------------6---------------       
B     -----------6------6------6-------6-----------           X2
F#    ------4--------------0------------------4----
B     -------------------------------------4-------

        
C#    ---------------------------------------------0---
G#    ---------------------------------------------3--- 
E      --------------------------------------------2---
B      --2-----4-4-4--0---2---------2-----4-4-4--0-0---
F#     --2-----4-4-4--0---2---------2-----4-4-4--0-0---
B      --2-h---4-4-4--0---2---------2-h---4-4-4--0-x---

        
C#    ---------------------------------------------
G#    ---------------------------------------------
E     -----------------6-------------6-------------   
B     ------------6------6------6-------6----------           X4
F#    -------4--------------0------------------4---
B     --------------------------------------4------

      Dist.
C#    --x--x--x--x--x--x--x--x--x---------------------------
G#    --x--x--x--x--x--x--x--x--x---------------------------
E     --6--6--6--6--6--6--6--6--6--------------------------
B     --6--6--6--6--6--6--6--6--6----6--6--6------7--7--7--7       
F#    --4--4--4--4--4--4--4--4--4----6--6--6------7--7--7--7
B     --x--x--x--x--x--x--x--x--x----6--6--6------7--7--7--7
      
    
     -2--2--2--2--2--2--2--2--2---4--4--4--4-----2--2          X2
     -2--2--2--2--2--2--2--2--2---4--4--4--4-----2--2
     -2--2--2--2--2--2--2--2--2---4--4--4--4-----2--2
 

C#   --x--x--x--x-------x--x--x-----------------------------
G#   --x--x--x--x-------x--x--x-----------------------------
E    --6--6--6--6-------6--6--6-----------------------------
B    --6--6--6--6-------6--6--6------6--6--6------7--7--7--7     
F#   --4--4--4--4-------4--4--4------6--6--6------7--7--7--7
B    --x--x--x--x-------x--x--x------6--6--6------7--7--7--7

     -2--2--2--2-----2--2--2-----4--4--4--4-----2--2       
     -2--2--2--2-----2--2--2-----4--4--4--4-----2--2
     -2--2--2--2-----2--2--2-----4--4--4--4-----2--2
       

C#    --x--x--x--x-------x--x--x------------------------------------
G#    --x--x--x--x-------x--x--x------------------------------------
E     --6--6--6--6-------6--6--6------------------------------------
B     --6--6--6--6-------6--6--6------6--6--6------7--7--7--7------2
F#    --4--4--4--4-------4--4--4------6--6--6------7--7--7--7------2  
B     --x--x--x--x-------x--x--x------6--6--6------7--7--7--7------2 <---(Let that last note ring)
      
      Clean
C#    -----------------------------------------------
G#    -----------------------------------------------
E     ----------------6-------------6----------------      
B     ------------6------6------6-------6------------         X4
F#    -------4--------------0------------------4-----
B     --------------------------------------4--------

     Dist.
C#   --x--x--x--x--x--x--x--x--x---------------------------
G#   --x--x--x--x--x--x--x--x--x---------------------------
E    --6--6--6--6--6--6--6--6--6---------------------------
B    --6--6--6--6--6--6--6--6--6----6--6--6------7--7--7--7       
F#   --4--4--4--4--4--4--4--4--4----6--6--6------7--7--7--7
B    --x--x--x--x--x--x--x--x--x----6--6--6------7--7--7--7
      
    
     -2--2--2--2--2--2--2--2--2---4--4--4--4-----2--2          X2
     -2--2--2--2--2--2--2--2--2---4--4--4--4-----2--2
     -2--2--2--2--2--2--2--2--2---4--4--4--4-----2--2


C#   --x--x--x--x-------x--x--x-----------------------------
G#   --x--x--x--x-------x--x--x-----------------------------
E    --6--6--6--6-------6--6--6-----------------------------
B    --6--6--6--6-------6--6--6------6--6--6------7--7--7--7     
F#   --4--4--4--4-------4--4--4------6--6--6------7--7--7--7
B    --x--x--x--x-------x--x--x------6--6--6------7--7--7--7

     -2--2--2--2-----2--2--2-----4--4--4--4-----2--2       
     -2--2--2--2-----2--2--2-----4--4--4--4-----2--2
     -2--2--2--2-----2--2--2-----4--4--4--4-----2--2
       

C#   --x--x--x--x-------x--x--x------------------------------------
G#   --x--x--x--x-------x--x--x------------------------------------
E    --6--6--6--6-------6--6--6------------------------------------
B    --6--6--6--6-------6--6--6------6--6--6------7--7--7--7------2
F#   --4--4--4--4-------4--4--4------6--6--6------7--7--7--7------2  
B    --x--x--x--x-------x--x--x------6--6--6------7--7--7--7------2 <---(Let that last note ring)

      Clean
C#    -----------------------------------------------0---
G#    -----------------------------------------------3--- 
E     -----------------------------------------------2---
B     ---2-----4-4-4--0---2---------2-----4-4-4--0---0---
F#    ---2-----4-4-4--0---2---------2-----4-4-4--0---0---
B     ---2-h---4-4-4--0---2---------2-h---4-4-4--0---x---

      Dist.
C#    -----------------------------------------------0---
G#    -----------------------------------------------3--- 
E     -----------------------------------------------2---  X4
B     ---2-----4-4-4--0---2---------2-----4-4-4--0---0---
F#    ---2-----4-4-4--0---2---------2-----4-4-4--0---0---
B     ---2-h---4-4-4--0---2---------2-h---4-4-4--0---x---

      Clean
C#    -----------------------------------------------
G#    -----------------------------------------------
E     ----------------6-------------6----------------      
B     ------------6------6------6-----6--------------         
F#    -------4--------------0------------------4-----
B     --------------------------------------4--------

     Dist.
C#   --x--x--x--x--x--x--x--x--x--------------------------
G#   --x--x--x--x--x--x--x--x--x--------------------------
E    --6--6--6--6--6--6--6--6--6--------------------------
B    --6--6--6--6--6--6--6--6--6---6--6--6------7--7--7--7       
F#   --4--4--4--4--4--4--4--4--4---6--6--6------7--7--7--7
B    --x--x--x--x--x--x--x--x--x---6--6--6------7--7--7--7
      
    
     -2--2--2--2--2--2--2--2--2---4--4--4--4-----2--2          X4
     -2--2--2--2--2--2--2--2--2---4--4--4--4-----2--2
     -2--2--2--2--2--2--2--2--2---4--4--4--4-----2--2


C#   --x--x--x--x-------x--x--x-----------------------------
G#   --x--x--x--x-------x--x--x-----------------------------
E    --6--6--6--6-------6--6--6-----------------------------
B    --6--6--6--6-------6--6--6------6--6--6------7--7--7--7     
F#   --4--4--4--4-------4--4--4------6--6--6------7--7--7--7
B    --x--x--x--x-------x--x--x------6--6--6------7--7--7--7

     -2--2--2--2-----2--2--2-----4--4--4--4-----2--2       
     -2--2--2--2-----2--2--2-----4--4--4--4-----2--2
     -2--2--2--2-----2--2--2-----4--4--4--4-----2--2
       

C#   --x--x--x--x-------x--x--x-----------------------------------
G#   --x--x--x--x-------x--x--x-----------------------------------
E    --6--6--6--6-------6--6--6-----------------------------------
B    --6--6--6--6-------6--6--6-----6--6--6------7--7--7--7------2
F#   --4--4--4--4-------4--4--4-----6--6--6------7--7--7--7------2  
B    --x--x--x--x-------x--x--x-----6--6--6------7--7--7--7------2  <--(Let that last note ring)


Im sure this tab is 99% correct.  Fun song to play.  Enjoy!!!
Jeremy
Tap to rate this tab
# A B C D E F G H I J K L M N O P Q R S T U V W X Y Z