Song name
# A B C D E F G H I J K L M N O P Q R S T U V W X Y Z

40 Below Summer - Training Day tab

Help us improve GuitareTab! Take a short survey!
40 Below Summer: Training Day
Tabbed by:2Fisted
Tuning: Drop B

Intro(clean)
------------------------------------------------------|
---------------------------------------6--------------|
-------11-11111111------9-9999-------7--5------7777---|
-9-999-9--9-9-9-9/7-777-7-7777/5-555-5---5-555-5555/--| X3
-9-999-9--9-9-9-9/7-777-7-7777/5-555-5---5-555-5555/--|
-9-999-9--9-9-9-9/7-777-7-7777/5-555-5---5-555-5555/--|
then
-----------------------------------------|
-----------------------------------------|
-------11-11111111------9-999---7~-------|
-9-999-9--9-9-9-9/7-777-7-777---5~-------|
-9-999-9--9-9-9-9/7-777-7-777-0-5~-------|
-9-999-9--9-9-9-9/7-777-7-777-0-5~-------|
                              .
Verse(X4, stop right before the palm mutes 4th time)
-----------------------------------------|
-----------------------------------------|
-----------------------------------------|
-0222--0322--0222--0332-------3b---------|
-0222--0322--0222--0332--0000------------|
-0222--0332--0222--0332--0000------------|
                         ....
Chorus
---------------------------------------------------------|
---------------------------------------------------------|
-------11-11111111------9-9999-------7-7777-------7-7777-|
-9-999-9--9-9-9-9/7-777-7-7777/5-555-5-5555-5-555-5-5555-|
-9-999-9--9-9-9-9/7-777-7-7777/5-555-5-5555-5-555-5-5555-|
-9-999-9--9-9-9-9/7-777-7-7777/5-555-5-5555-5-555-5-5555-|
Interlude 1
-----------------------------------------|
-----------------------------------------|
-----------------------------------------|
-----------------------------------------|
-----------------------------------------|
-0222-2222222-0222-2000000---------------|
 .... .       .... .
Interlude 2 is the same as Interlude 1, but on 3 strings.
Outro
-----------------------------------------|
-----------------------------------------|
-----------------------------------------|
-0222-2~-0332-2~-0222-2~-0332-2----3b----|
-0222-2~-0332-2~-0222-2~-0332-2-000------|
-0222-2~-0332-2~-0222-2~-0332-2-000------|
                                ...
Related for Training Day tab