Guitaretab - guitar tabs
Song name
# A B C D E F G H I J K L M N O P Q R S T U V W X Y Z

40 Below Summer - Self Medicate tab

40 Below Summer: Self Medicate
Tabbed by 2Fisted
Tuning: Drop B
[ Tab from: http://www.guitaretab.com/numeric/40-below-summer/51327.html ]
Intro/Verse
-----------------------------------------|
-----------------------------------------|
-5-------------------5-------------------|
-5-5-----------------3-5-----------------|
-3-5-------------------5-----------------|
---5-00-0-000-0-0-0----5-00-0-000-0-0-0--|
     .. . ... . . .      .. . ... . . .
-----------------------------------------|
-----------------------------------------|
-5------------------5--------------------|
-5-5----------------5-5------------------|
-3-5----------------3-5------------------|
---5-00-0-000-0-0-0---5-00-0-000-0-0-0---|
     .. . ... . . .     .. . ... . . .
Pre-Chorus
-----------------------------------------|
-----------------------------------------|
---66---66---6---------------------------|
---44---44---4---------------------------|
-----------------------------------------|
-00---00---00----------------------------|
 ..   ..   ..
Chorus
-----------------------------------------|
-----------------------------------------|
-3-33-3---3---3--6-66-6---6---6----------|
-3-33-3---3---3--6-66-6---6---6----------|
-1-11-1---1---1--4-44-4---4---4----------|
--------00--00----------00--00-----------|
        ..  ..          ..  ..
-----------------------------------------|
-----------------------------------------|
-----------------------------------------|
-4-44-4----4----4--2-22-2----2----2------|
-4-44-4----4----4--2-22-2----2----2------|
-4-44-4-00-4-00-4--2-22-2-00-2-00-2------|
        ..   ..           ..   ..
Interlude 1
-----------------------------------------|
-----------------------------------------|
-----------------------------------------|
-----------------------------------------|
-----------------------------------------|
-00-5h6-0-6h7-0-8h9-00-6p5-0-------------|
Interlude 2 is interlude 1 on 3 strings.
Interlude 3 is Interlude 2, with all zeros palm muted.
Outro, play intro once.
Outro 2
-----------------------------------------|
-----------------------------------------|
-5----5----5----5------------------------|
-5-5~-3-5~-5-5~-5-5~---------------------|
-3-5~---5~-3-5~-3-5~---------------------|
---5~---5~---5~---5~---------------------|
Fill
---------------|
---------------|
---------------|
-5-3-6---------|
-5-3-6---------|
-5-3-6---------|
Outro 3, play interlude 3 once.
Related for Self Medicate tab
Self Medicate chords by 40 Below Summer