Song name
# A B C D E F G H I J K L M N O P Q R S T U V W X Y Z

40 Below Summer - The Day I Died tab

40 Below Summer: The Day I Died
Tabbed by 2Fisted
Tuning: Drop B

Intro/Verse(clean)
-----------------------------------------|
-----------------------------------------|
-------6~-------4~-----------------------|
---------6~----------6~------------------|
-4~-44------4~---------------------------|
-----------------------------------------|
Chorus
--------------------------------------------|
--------------------------------------------|
----------------------12/13\12--------------|
-0~-5~-0----0~-5~-0~-----------141414-11-11-|
-0~-5~-0-00-0~-5~-0~------------------------|
-0~-5~-0-00-0~-5~-0~------------------------|
         ..
-----------------------------------------|
-----------------------------------------|
-----------------------------------------|
-0~-----5~-0~------0~--------------------|
-0~-00--5~-0~-0-77-0~--------------------|
-0~-00--5~-0~-0-77-0~--------------------|
    ..        .
Interlude 1(clean, its a bit confusing with all the bass)
-----------------------------------------|
-----------------------------------------|
-----------------------------------------|
---x-14p12----1212~-12121212~-1212~------|
-0~--------0~----------------------------|
-----------------------------------------|
Interlude 2
--------------------|
--------------------|
-----8~-------------|
-4~-/6~-------------|
-4~-/6~-------------|
-4~-/6~-------------|
Tap to rate this tab
# A B C D E F G H I J K L M N O P Q R S T U V W X Y Z