Song name
# A B C D E F G H I J K L M N O P Q R S T U V W X Y Z

40 Below Summer - Suck It Up tab

40 Below Summer: Suck It Up
Tabbed by 2Fisted
Tuning: drop B

Intro
----------------------------------|
----------------------------------|
----------------------------------|
----------------------------------|
-2/3\2-2/3\2-2/3\2-3-222222-------|
-2/3\2-2/3\2-2/3\2-3-222222-------|
                     ......
----------------------------------|
----------------------------------|
----------------------------------|
----------------------------------|
-3/4\3-3/4\3-3/4\3-4-333----------|
-3/4\3-3/4\3-3/4\3-4-333-4b-------|
                     ...
----------------------------------|
----------------------------------|
----------------------------------|
----------------------------------|
-2/3\2-2/3\2-2/3\2-3-222222-------|
-2/3\2-2/3\2-2/3\2-3-222222-------|
                     ......
----------------------------------|
----------------------------------|
----------------------------------|
----------------------------------|
-3/4\3-3/4\3-3/4\3----------------|
-3/4\3-3/4\3-3/4\3----------------|
Verse(first half is just bass)
Verse 2nd half (play X2)
----------------------------------|
----------------------------------|
----------------------------------|
----------------------------------|
-2/3\2-2/3\2-2/3\2----------------|
-2/3\2-2/3\2-2/3\2----------------|

----------------------------------|
----------------------------------|
----------------------------------|
----------------------------------|
-3/4\3-3/4\3-3/4\3----------------|
-3/4\3-3/4\3-3/4\3----------------|
Chorus
------------------------------------------|
------------------------------------------|
------------------------------------------|
-4~-4~-2~-2~------------------------------|
-4~-4~-2~-2~-2222-2222-2222-2222-22222222-|
-4~-4~-2~-2~-2222-2222-2222-2222-22222222-|
             .... .... .... .... ........
Post Chorus
----------------------------------|
----------------------------------|
----------------------------------|
----------------------------------|
-2/3\2-2/3\2-2/3\2-3-222222-------|
-2/3\2-2/3\2-2/3\2-3-222222-------|
                     ......
----------------------------------|
----------------------------------|
----------------------------------|
----------------------------------|
-3/4\3-3/4\3-3/4\3----------------|
-3/4\3-3/4\3-3/4\3----------------|
Interlude 1
----------------------------------|
----------------------------------|
----------------------------------|
-3-3-3-4-4-4-3-3-3----------------|
-3-3-3-4-4-4-3-3-3----------------|
-3-3-3-4-4-4-3-3-3----------------|
Fill
----------------|
----------------|
----------------|
----------------|
-0-0-0----------|
-0-0-0----------|
 . . .
Interlude 2
----------------------------------|
----------------------------------|
----------------------------------|
-2-2-2-3-3-3-2-2-2----------------|
-2-2-2-3-3-3-2-2-2----------------|
-2-2-2-3-3-3-2-2-2----------------|
Interlude 2
----------------------------------|
----------------------------------|
---------------------7*-----------|
-------------------7*--7*---------|
-2-2-2-3-3-3-2-2-2----------------|
-2-2-2-3-3-3-2-2-2----------------|
 . . . . . . . . .
----------------------------------|
----------------------------------|
-------------------7*--7*---------|
---------------------7*-----------|
-2-2-2-3-3-3-2-2-2----------------|
-2-2-2-3-3-3-2-2-2----------------|
 . . . . . . . . .
----------------------------------|
----------------------------------|
----------------------------------|
----------------------------------|
-2-2-2-3-3-3-2-2-2--2-2-2---------|
-2-2-2-3-3-3-2-2-2--2-2-2---------|
 . . . . . . . . .  . . .
----------------------------------|
----------------------------------|
----------------------------------|
----------------------------------|
-2-2-2-3-3-3-2-2-2--2222-2222-----|
-2-2-2-3-3-3-2-2-2--2222-2222-----|
 . . . . . . . . .  .... ....
Tap to rate this tab
 
# A B C D E F G H I J K L M N O P Q R S T U V W X Y Z