Song name
# A B C D E F G H I J K L M N O P Q R S T U V W X Y Z

40 Below Summer - A Season In Hell tab

40 Below Summer: A Season In Hell
Tabbed by 2Fisted
Tuning: Drop B

Intro(1's and 2' not 12's)
----------------------------------|
----------------------------------|
----------------------------------|
----------------------------------|X4
-12-------------------------------|
-121-543-432-323------------------|

----------------------------------|
----------------------------------|
----------------------------------|
----------------------------------|
-12-------------------------------|
-121-543-432-323------------------|
     ... ...
----------------------------------|
----------------------------------|
----------------------------------|
----------------------------------|
-12-------------------------------|
-121-543-432-323------------------|
Verse(2nd Guitar does this slightly after with flanger or wah)
----------------------------------|
----------------------------------|
-4-44-----------------------------|
-2-22-----------------------------|
-2-22-----------------------------|
-2-22-----------------------------|
Pre-Chorus
----------------------------------|
----------------------------------|
----------------------------------|
----------------------------------|X3
-12-------------------------------|
-121-543-432-323------------------|

----------------------------------|
----------------------------------|
----------------------------------|
----------------------------------|
-12-------------------------------|
-121-543-432-323------------------|
             ...
Chorus(1's not 11')s
----------------------------------|
----------------------------------|
----------------------------------|
----------------------------------|
-1~~-11-1~-22222221---------------|
-1~~-11-1~-22222221---------------|
     ..
Interlude 1 is Chorus.
Interlude 2(clean)
------------|
------0~----|
------------|
---4--------|X1
-5---5------|
------------|

----------------------------------|
-------5--------------------------|
---5-----5---5~-------------------|
-3---3-----3----------------------|Repeat.
----------------------------------|
----------------------------------|
Interlude 3(dist., 10's not 0's and 1')
-----------------------------------------------------------|
-----------------------------------------------------------|
-----------------------------------------------------------|
-----------------------------------------------------------|
-5/7-7-7---7/10-10-10-10-10-10-10/-5-5-5-5-5-5-5-3/-5-5-0--|
--------0~----------------------------------------------0--|
continued
----------------------------------|
----------------------------------|
----------------------------------|
----------------------------------|
-5/-8-8-8-8-8-8-8\-3-3-3-3-3-3-3--|
----------------------------------|
Outro Is interlude 2.
Tap to rate this tab
# A B C D E F G H I J K L M N O P Q R S T U V W X Y Z