Song name
# A B C D E F G H I J K L M N O P Q R S T U V W X Y Z

40 Below Summer - Im Still Bleeding tab

40 Below Summer: I'm Still Bleeding
Tabbed by 2Fisted
Tuning: Drop B

Intro/Verse(clean)
-----------------------------------------------|
-----------------------------------------------|
-----------77-------7--7-------------77--------|
---------77----------7--7----------77----------|
---5---55-------5\\----------5---55-------5//--|
-0---0--------0---0--------0---0--------0------|
Pre-Chorus(dist.)
---------------|
---------------|
---------------|
-3p0--------0--|
-3p0-000000-0--|
-3p0-000000-0--|
     ......
Chorus
------------------------------------|
------------------------------------|
-7-----7-777777--3/5-55-5/6-66------|
-7-----7-777777--3/5-55-5/6-66------|
-5-000-5-555555--1/3-33-3/4-44-0000-|
---000-------------------------0000-|
   ...                         ....
--------------------------------------|
--------------------------------------|
-7-----7-777777--3/5------5/6----6----|
-7-----7-777777--3/5------5/6----6----|
-5-000-5-555555--1/3-0000-3/4-00-4-00-|
---000---------------0000-----00---00-|
   ...               ....     ..   ..
End on
---------------|
---------------|
---------------|
-3p0--------0--|
-3p0-000000-0--|
-3p0-000000-0--|
     ......
Interlude 1
---------------------------------------|
---------------------------------------|
-7-----7-777777--3/5-5555-5/6-66666666-|
-7-----7-777777--3/5-5555-5/6-66666666-|X3
-5-000-5-555555--1/3-3333-3/4-44444444-|
---000---------------------------------|
   ...
-------------------------------------|
-------------------------------------|
-7----7-777777--3/5------5/6----6----|
-7----7-777777--3/5------5/6----6----|
-5-00-5-555555--1/3-0000-3/4-00-4-00-|
---00---------------0000-----00---00-|
   ..               ....     ..   ..
End on
--------------|
--------------|
--------------|
-3p0-------0--|
-3p0-00000-0--|
-3p0-00000-0--|
     .....
Interlude 2(clean)
-----------------------|
-17~-------17~---------|
-----16~----16~--------|
-------------14~-------|
-----------------------|
-----------------------|
Fill before last chorus
---------------------------|
---------------------------|
---------------------------|
-3p0--------03333333-\\----|
-3p0-000000-03333333-\\----|
-3p0-000000-03333333-\\----|
     ......
Outro
-----------------------------------------|
-----------------------------------------|
-7----7-7---7---7--3/5-5555-5/6-66666666-|
-7----7-7---7---7--3/5-5555-5/6-66666666-|
-5-00-5-5-0-5-0-5--1/3-3333-3/4-44444444-|
---00-----0---0--------------------------|
   ..     .   .
End on
---------------|
---------------|
---------------|
-3p0--------0--|
-3p0-000000-0--|
-3p0-000000-0--|
     ......
Tap to rate this tab
# A B C D E F G H I J K L M N O P Q R S T U V W X Y Z